Led Zeppelin
Wearing And Tearing (Bass tab)

(4)
G|-----------------------------|
D|------------------------7----|
A|----------4-4-4-4-7-7-7------|
E|--5-5-5-5--------------------|

(4)
G|-----------------------------|
D|-----------------------------|
A|------------420-420----------|
E|--2---2-4-5------------------|

(4)
G|-----------------------------------------|
D|-----------------------------------------|
A|-----------------------------------------|
E|-22-0122-22-0122-553455003345------------|

(3) (1)
G|-----------------------------|---------------------------|
D|------------------------7----|--7-7-7-7-5-5-5-5-4-4-4----|
A|----------4-4-4-4-7-7-7------|-------------------------7-|
E|--5-5-5-5--------------------|---------------------------|

(3) (1)
G|----------------------------|-------|
D|----------------------------|-------|
A|--5---5-5----5--------------|--5-5--|
E|----------5-----5-----------|---5-5-|

(4)
G|-----------------------------------------|
D|-----------------------------------------|
A|-----------------------------------------|
E|-22-0122-22-0122-553455003345------------|

(3) (1)
G|-----------------------------|---------------------------|
D|------------------------7----|--7-7-7-7-5-5-5-5-4-4-4----|
A|----------4-4-4-4-7-7-7------|-------------------------7-|
E|--5-5-5-5--------------------|---------------------------|

(3) (1)
G|----------------------------|-------|
D|----------------------------|-------|
A|--5---5-5----5--------------|--5-5--|
E|----------5-----5-----------|---5-5-|

(4)
G|-----------------------------------------|
D|-----------------------------------------|
A|-----------------------------------------|
E|-22-0122-22-0122-553455003345------------|

(3) (1)
G|-----------------------------|---------------------------|
D|------------------------7----|--7-7-7-7-5-5-5-5-4-4-4----|
A|----------4-4-4-4-7-7-7------|-------------------------7-|
E|--5-5-5-5--------------------|---------------------------|

(3) (1)
G|----------------------------|-------|
D|----------------------------|-------|
A|--5---5-5----5--------------|--5-5--|
E|----------5-----5-----------|---5-5-|

(4)
G|-----------------------------------------|
D|-----------------------------------------|
A|-----------------------------------------|
E|-22-0122-22-0122-553455003345------------|

(3) (1)
G|-----------------------------|---------------------------|
D|------------------------7----|--7-7-7-7-5-5-5-5-4-4-4----|
A|----------4-4-4-4-7-7-7------|-------------------------7-|
E|--5-5-5-5--------------------|---------------------------|

(4)
G|-----------------------------|
D|-----------------------------|
A|------------420-420----------|
E|--2---2-4-5------------------|

(4)
G|-----------------------------------------|
D|-----------------------------------------|
A|-----------------------------------------|
E|-22-0122-22-0122-553455003345------------|

(3) (1)
G|----------------------------|-------|
D|----------------------------|-------|
A|--5---5-5----5--------------|--5-5--|
E|----------5-----5-----------|---5-5-|

(4)
G|-----------------------------------------|
D|-----------------------------------------|
A|-----------------------------------------|
E|-22-0122-22-0122-553455003345------------|

(4) (3)
G|----------|-----------------------------|
D|----------|-----------------------------|
A|--7-------|-7h9-7h9-7h9-7h9-7h10--------|
E|----------|-----------------------------|

(3)
G|-----------------------------|
D|------------------------7----|
A|----------4-4-4-4-7-7-7------|
E|--5-5-5-5--------------------|

  • surfbass

    Submitted by

    surfbass at Tue 03 Aug, 2004 11:00 am

  • <
Copyrights
Author: ?
Composer: ?
Publisher: ?
More details
Available on: Coda (1982)

Reactions

CommonCrawl [Bot]

Follow Muzikum