Led Zeppelin
When Levee Breaks (Guitar tab)

e\----------------------------------------------------------
b\----------------------------------------------------------
g\----------------------------------------------------------
d\----------------------------------------------------------
a\----------------------------------------------------------
e\3-0-0-0-0-0-0-3-0-0-0-0-0-3-0-0-0-0-0-0-3-0-0-3-0-0-5-----

e\--------------------------------------------------------------
b\--------------------------------------------------------------
g\--------------------------------------------------------------
d\--------------------------------------------------------------
a\--------------------------------------------------------------
e\3-0-0-0-5-0-3-0-2-0-5-4-0-0-0-3-0-0-0-0-0---------------------

e\----------------------------------------------------------
b\----------------------------------------------------------
g\----------------------------------------------------------
d\----------------------------------------------------------
a\----------------------------------------------------------
e\3-0-0-0-0-0-0-3-0-0-0-0-0-3-0-0-0-0-0-0-3-0-0-3-0-0-5-----

e\----------------------------------------------------------
b\----------------------------------------------------------
g\----------------------------------------------------------
d\----------------------------------------------------------
a\----------------------------------------------------------
e\3-0-0-0-0-0-0-3-0-0-0-0-0-3-0-0-0-0-0-0-3-0-0-3-0-0-5-----

omyinc.

  • Aros

    Submitted by

    Aros at Sat 31 Jul, 2004 9:01 pm

  • <
Copyrights
Author: ?
Composer: ?
Publisher: ?

Reactions

CommonCrawl [Bot]

Follow Muzikum