Led Zeppelin
Kashmir Ver 10 (Guitar tab)

song= Kashmir
artist= Led Zeppelin
album= Phyical Graffiti
tabber= omyinc.


stop vibrating string with palm at "*" everything else is a clear sound.

e\-------------------------------------------------------------------------------------
b\-------------------------------------------------------------------------------------
g\2-2-2-*-2-2-2---3-3-3-*-3-3-3---4-4-4-*-4-4-4---5-5-5-*-5-5-5---7-7-7-*--------------
d\0-0-0-*-0-0-0---0-0-0-*-0-0-0---0-0-0-*-0-0-0---0-0-0-*-0-0-0---0-0-0-*--------------
a\5-5-5-*-5-5-5---5-5-5-*-5-5-5---5-5-5-*-5-5-5---5-5-5-*-5-5-5---5-5-5-*--------------
e\--------------0---------------0---------------0---------------0----------------------

e\10-9--8--7-6-5-4-3-2--------------------------------------
b\11-10-9--8-7-6-5-4-3-3-2-1-0------------------------------
g\12-11-10-9-8-7-6-5-4-4-3-2-1------------------------------
d\---------------------5-4-3-2------------------------------
a\----------------------------------------------------------
e\----------------------------------------------------------

omyinc.

  • Aros

    Submitted by

    Aros at Mon 26 Jul, 2004 8:29 am

  • <
Copyrights
Author: ?
Composer: ?
Publisher: ?
More details
Language: English

Reactions

1 post

CommonCrawl [Bot]

metson Thu 27 Jan, 2005 1:22 am

this gotta be the worst tab i`ve ever seen in my hole life you shouldn`t call yourself a musician `cause instead of making music the only thing you make is noise you suck!!!!!!!!!!!!!!!!!!!!!!!!!!!!!!!!!!!!!!!!!!!!!!!!!!!!!!!!!!!!!!!!!!!!!!Go fuck yourself bitch!!!!!!!!!!!!!!!!!!!!!!!!!!!!!

1 post • Page 1 of 1

Follow Muzikum