Led Zeppelin
In My Time Of Dying (live Version) (Guitar tab)

This song requires a slide. When using a slide, the strings your not playing, you need to mute. Or else it'll sound really weird.

As far as I can tell, this song has a wierd tuning... but I just play it in Standard Tuning, I dont no the solo..... Cuz I cant really tab solo's with slides in them, but oh well...

Standard Tuning
^Bend
/Slide





1---------------------------------------
2---------------------------------------
3---3-2-0------3-4-5--------------------
4---3-2-0------3-4-5--------------------
5---------------------------------------
6---------------------------------------

1---------------------------------------
2----------------------12---------------
3---3-2-0---------/12-------------------
4---3-2-0---------/12-------------------
5---------------------------------------
6---------------------------------------

1---------------------------------------
2---------------------------------------
3---3-2-0-----3-4-5---------------------
4---3-2-0-----3-4-5---------------------
5---------------------------------------
6---------------------------------------

1---------------------------------------
2---------------------------------------
3---0---3/---0--------------------------
4---0---3/---0--------------------------
5---------------------------------------
6---------------------------------------

Play that 2 Times....then

1---------------------------------------
2---------------------------------------
3--0-3-5------0--/7--0---/5---3/--0-----
4--0-3-5----------------------3/--0-----
5---------------------------------------
6---------------------------------------

1---------------------------------------
2---------------------------------------
3--0-3-5------0--/7--/5-----3/-----0----
4--0-3-5--------------------3/-----0----
5---------------------------------------
6---------------------------------------

Reapeat one bar one more time, and then go to this

1----------------------------------------
2----------------------------------------
3--0--/7---0----/5----0----3/------0-----
4--------------------------3/------0-----
5----------------------------------------
6----------------------------------------

Reapeat that 3 times then

1----------------------------------------
2----------------------------------------
3--0--10/--0---/5---0---3/----0----------
4--0--------------------3/----0----------
5----------------------------------------
6----------------------------------------

1----------------------------------------
2--13--/15--------------------------1----
3-----------0--/5---0---3/---0------x----
4-----------------------3/---0------2----
5-----------------------------------0----
6----------------------------------------

Ok now back to the main intro then, the middle part, then the solo
which I dont know. And then this I dont know if it's right ok...

1----8----x----7---------------------------
2----7----x----7---------------------------
3----7----x----7---------------------------
4----7---------7---------------------------
5------------------------------------------
6------------------------------------------

Reapeat 4 times then move to

1------------------------------------------
2------------------------------------------
3--3p-2p-0--------5--3--0------------------
4--3p-2p-0--------5--3--0------------------
5------------------------------------------
6------------------------------------------

Reapeat 2 times, then back to the strum part..

Somewhere in the song after the first strumming, he does a second strumming pattern
right after it...

1----6--x---5-------------------------------
2----5--x---5-------------------------------
3----5--x---5-------------------------------
4----5------5-------------------------------
5-------------------------------------------
6-------------------------------------------

Reapeat 4 times and thats about it...........

  • MetalZep

    Submitted by

    MetalZep at Sun 01 Feb, 2004 5:24 am

  • <
Copyrights
Author: ?
Composer: ?
Publisher: ?
More details
Language: English

Reactions

2 posts

CommonCrawl [Bot]

drzm Wed 15 Jun, 2005 1:48 pm

totally cool intro and the /7 /5 /0 bits are awsome, totally kool ROCK ON !

pooch28 Fri 04 Mar, 2005 7:55 pm

Great tab!!!

2 posts • Page 1 of 1

Follow Muzikum