Led Zeppelin
Candy Store Rock (Bass tab)

Led Zeppelin
Candy Store Rock

Tuning (Standard)
4 3 2 1
E A D G

Intro:
G|----------------|----------------|----------------|----------------|
D|----------------|----------------|----------------|----------------|
A|----------------|----------------|----------------|----------------|
E|----------------|----------------|----------------|----------------|

G|----------------|----------------||
D|----------------|----------------||
A|----------------|----------------||
E|----------------|----------------||

D.S.
G|----------------|----------------|----------------|----------------|
D|----------------|----------------|----------------|-----------7-77-|
A|-----------3-55-|-----------5-53-|-----------3-35-|----------------|
E|--3-5-3-5-------|--3-5-3-5-------|--3-5-3-5-------|--3-5-----------|
Oh baby.....

G|----------------|----------------|----------------|----------------|
D|----------------|----------------|----------------|----------------|
A|-----------3-35-|-----------5-53-|-----------3-35-|----------------|
E|5-3-5-3-5-------|--3-5-3-5-------|--3-5-3-5-------|--3-5-----------|

G|----------------|----------------|----------------|----------------|
D|----------------|----------------|----------------|----------------|
A|------3--32-----|------3-332-----|------3-332-----|------3-332-----|
E|--3-5-------5-3-|5-3-5-------5-3-|5-3-5-------5-3-|5-3-5-------5-3-|

G| ----------------|----------------|----------------|----------------|
D|o----------------|----------------|----------------|-----------7-77-|
A|o-----------3-55-|-----------5-53-|-----------3-35-|----------------|
E| --3-5-3-5-------|--3-5-3-5-------|--3-5-3-5-------|--3-5-----------|

to Coda
G|----------------|----------------|----------------|----------------|
D|----------------|----------------|----------------|----------------|
A|-----------3-35-|-----------5-53-|-----------3-35-|----------------|
E|5-3-5-3-5-------|--3-5-3-5-------|--3-5-3-5-------|--3-5-----------|
_________________ ________________
|1. |2. |
G|----------------|----------------|----------------|---------------- |----------------||
D|----------------|----------------|----------------|----------------o|----------------||
A|------3--32-----|------3-332-----|------3-332-----|------3-332-----o|------3--32-----||
E|--3-5-------5-3-|5-3-5-------5-3-|5-3-5-------5-3-|5-3-5-------5-3- |5-3-5-------5-3-||


G|----------------|----------------|----------------|----------------|
D|----------------|----------------|----------------|-----------7-77-|
A|-----------3-55-|-----------5-53-|-----------3-35-|----------------|
E|--3-5-3-5-------|--3-5-3-5-------|--3-5-3-5-------|--3-5-----------|

G|----------------|----------------|----------------|----------------|
D|----------------|----------------|----------------|----------------|
A|-----------3-35-|-----------5-53-|-----------3-35-|----------------|
E|5-3-5-3-5-------|--3-5-3-5-------|--3-5-3-5-------|--3-5-----------|

G|----------------|----------------|----------------|----------------|
D|----------------|----------------|----------------|----------------|
A|------3--32-----|------3-332-----|------3-332-----|------3-332-----|
E|--3-5-------5-3-|5-3-5-------5-3-|5-3-5-------5-3-|5-3-5-------5-3-|

G|----------------|----------------|----------------|----------------|
D|----------------|----------------|----------------|----------------|
A|----------------|----------------|----------------|----------------|
E|33-3133---------|13-33133--------|-33-3133--------|13-33133--------|

D.S. al Coda
G|----------------|----------------|----------------|----------------|----------------||
D|----------------|----------------|----------------|----------------|----------------||
A|----------------|----------------|----------------|----------------|----------------||
E|33-3133---------|13-33133--------|-33-3133--------|13-33133--------|13-33133----013-||

CODA
G|----------------|----------------|----------------|----------------|
D|----------------|----------------|----------------|----------------|
A|------3--32-----|------3-332-----|------3-332-----|------3-332-----|
E|--3-5-------5-3-|5-3-5-------5-3-|5-3-5-------5-3-|5-3-5-------5-3-|

G|----------------|----------------|----------------|----------------|
D|----------------|----------------|----------------|----------------|
A|----------------|----------------|----------------|----------------|
E|33-3133---------|13-33133--------|-33-3133--------|13-33133--------|

G|----------------|----------------|----------------|----------------||
D|----------------|----------------|----------------|----------------||
A|----------------|----------------|----------------|----------------||
E|33-3133---------|13-33133--------|-33-3133--------|13-33133--------||

G| ----------------|----------------|----------------|---------------- |
D|o-----33---------|-3-3--3----232--|----------------|----------------o|
A|o---3------------|--------------30|-----------3-35-|-----------5-53-o| Repeat
E| 11--------------|----------------|553-5-3-5-------|--3-5-3-5------- | 5 times

G|----------------|----------------|----------------|----------------||
D|-----33---------|-3-3--3----232--|----------------|----------------||
A|---3------------|-----3--------30|-----------3-35-|----------------||
E|11--------------|----------------|553-5-3-5-------|--3-5-3-5-------||

Copyrights
Author: ?
Composer: ?
Publisher: ?
More details
Language: English
Available on: Presence (1976)

Reactions

CommonCrawl [Bot]

Follow Muzikum