Led Zeppelin
What Is And Never Should Be (Bass tab)

Artist: led zeppelin
Song: What is and never should be
standard tuning

intro/verse 1
R= rest
im 99% sure this is correct
fig 1
G:--------------------------------------9----------
D:-2/7 7---- 7---------------------9/11---11-----9-
A: ----- 7p9 9-7-0----0-4-R-0-7-R-----------R----

G:-------------------------------------9------------
D:-7-----7------------------------9/11---11\-R-9--7-----7-------
A:---7/9---9-7-0----0-4-4-R-4-7-R-------------------7/9---9-7-0----0-4-

G:----------9------------------------------
D:-----9/11---11\-R-9-----7-----7---------------------
A:-7-R----------------------7/9---9-7-0----0-4-3-2-1-----
Chorus-fig 2
G:--------7-------5-------5------- 4-------4-
D:-0--0-0---0-R-0---0-0-0--- 0-R-0---0-0-0---0-R-0-7-5--3-2-0---
A:---------------------------3------------

G:-------7-------5-------5-------4-------4-----------------
D:-0-R-0---0-R-0---0-0-0---0-R-0---0-0-0---0-R-0-7-5--3-2-0----------
A:--------------------------------------------------------

G:------4-------2-----2-------1----1--------------------------
D:-----------------------------------------4-2-1--------------2
A:-2-22---2-R-2---222---2-R-2---22---2-R-2-------2--0-----2/4---3-
verse 2 play fig 1
Guitar solo
G:-------------------------------------9--------------------------------
D:2/7-7-----7---------------------9/11----11-9--6-9R-6--------------------------- A:------7/9---9-7-0--0-4-5-R-6-7----------------------------------------------------
E:-----------------------------------------------------------------------

G:-------------------------------9--11/12/13--11-9----------------
D:-7------7-----------------9/11-------------------11--7---7-6------
A:---7/9----9-7-4-R-5-R-6/7------------------------------------9-7-----7-
E:-----------------------------------------------------------------7/9--

G:----9---------------------------------------------
D:-------------------5-7--7--9/11-9-7------------------
A:--------2-4-R-7---------------------9-7--------------- then plau fig 2
E:-0----4---------------------------------9-7----------
3rd verse play fig1

outro
G:-------------------------------------------------
D:-------6/7 R----------5\4-R------------------------6/7-R--------5\4 R--
A:-5/7-r--------4-4/5-R-------7---5---6-7------5/7-R--------4/5-R-------7----
E:------------------------------7---------7-R-----------------------------7-0-

the rest of the outro is basically the same so use your imagination and add in the
notes where needed, play with your emotions not your head

Copyrights
Author: ?
Composer: ?
Publisher: ?
More details
Language: English

Reactions

CommonCrawl [Bot]

Follow Muzikum