Led Zeppelin
Wanna Whole Lot Of Love (Guitar tab)

led zepplin
wanna whole lot of love

tabbed by 46and2

this version is different maybe easier and includes the
frame work of the solo just add a little bit in some spots

e[----------------------------------]
b[----------------------------------]
g[----------------------------------]
d[-------------9--------------------]
a[---7^-7^-----7--------------------]
E[--5--5---000----------------------]

e[--------------------------------]
b[--------------------------------]
g[--------------------------------]
d[---------9----------------------]
a[---555577---(volume pedal w/ pickslide)
E[--------------------------------]



e[-------12-------------------------]
b[-----12---------------------------]
g[---14-----14-15-------------------]
d[99-------------14 15-12^----------]
a[77--------------------------------]
E[----------------------------------]

e[----------------------------------]
b[--------3-------------------------]
g[----2h4----0h3p0------------------]
d[-99--------------0p3h0------------]
a[-77--------------------0p3h0p3^^--]
E[----------------------------------]

e[---------12-15--15--15-------]
b[-------12-----15--15---------]
g[-----14----------------------]
d[-99--------------------------]
a[-77--------------------------]
E[-----------------------------]

e[-------------20--------------]
b[-----17 20-20--19p17h19p17^^-]
g[-----------------------------]
d[-99--------------------------]
a[-77--------------------------]
E[-----------------------------]

e[--------19-19-18-17-1718-17^^]
b[-----17----------------------]
g[-----------------------------]
d[-99--------------------------]
a[-77--------------------------]
E[-----------------------------]

e[--------------19-----------------]
b[-----17 19-19---17h19p17h19p17^^-]
g[---------------------------------]
d[-99------------------------------]
a[-77------------------------------]
E[---------------------------------]

now this solo is not absolutly perfect
but sound pretty good

Copyrights
Author: ?
Composer: ?
Publisher: ?
More details
Language: English

Reactions

CommonCrawl [Bot]

Follow Muzikum