Led Zeppelin
The Girl I Love Ver 2 (Guitar tab)

The Girl I love She Got Long Black Wavy Hair
Led Zeppelin-BBC Sessions
Guitar Player-Jimmy Page
Tabbed by Sean Richey

The solo�s pretty hard to figure out, so I don�t have it but the rest is 100% correct

Intro/Verse

e--------------------------------------------------------------
B--------------------------------------------------------------
G--------------------------------------------------------------
D--------------7p-5------5---5-----5-�7------------------------
A--------------------7----------7------------------------------
E-------5---5-------------------------------5---5---3---0--3h-5


e--------------------------------------------------------------
B--------------------------------------------------------------
G--------------7p-5------5------5--7---------7p-5----7---------
D--------------------7-------7---------------------------------
A--------5---5-------------------------5---5-------------------
E--------------------------------------------------------------


Bridge

e--------------------------------------------------------------
B--------------------------------------------------------------
G-------------------7------------------5-----------------------
D-------------------5------------------5-----------------------
A-------------------5------------------3-----------------------
E-------------------0------------------0-----------------------

Copyrights
Author: ?
Composer: ?
Publisher: ?
More details
Language: English

Reactions

CommonCrawl [Bot]

Follow Muzikum