Led Zeppelin
The Girl I Love Bbc Sessions Ver 2 (Guitar tab)

e--------------------------------------------------------------
B--------------------------------------------------------------
G--------------------------------------------------------------
D--------------7p--5-----5---5-----5h--7-----------------------
A------0---0----------7---------7------------------------------
E-------------------------------------------5---5---3---0--3h-5

Bridge

e--------------------------------------------------------------
B--------------------------------------------------------------
G-------------------7------------------5-----------------------
D-------------------5------------------5-----------------------
A-------------------5------------------3-----------------------
E-------------------0------------------0-----------------------


O.K here's the solo

e-----------12-------------------------------------------------
B--------12------15b---15b-------------------------------------
G---14b---------------------12h--14-------12h--14-------12h--14
D------------------------------------14------------14----------
A--------------------------------------------------------------
E--------------------------------------------------------------

e--------------12----------------------------------------------
B-----------12------15\17b---15h--17---------------------------
G--14--14b----------------------------17---17b---12h--14-------
D---------------------------------------------------------14---
A--------------------------------------------------------------
E--------------------------------------------------------------

e----------------------------14p--12-----14p--12----14p--12----
B----7\8-8-8-8-8-8-8-8-8-8-----------13----------13---------13-
G------9-9-9-9-9-9-9-9-9-9-------------------------------------
D--------------------------------------------------------------
A--------------------------------------------------------------
E--------------------------------------------------------------

e---13----13----13----13---------------------------------------
B---15b---15b---15b---15b----------22b--22b--22b---------------
G--------------------------------------------------------------
D--------------------------------------------------------------
A--------------------------------------------------------------
E--------------------------------------------------------------

Copyrights
Author: ?
Composer: ?
Publisher: ?

Reactions

CommonCrawl [Bot]

Follow Muzikum