Led Zeppelin

Led Zeppelin
The Girl I Love (Guitar tab)

Artist: Led Zeppelin
Title: The Girl I Love She Got Long Black Waivy Hair
Album: Led Zeppelin BBC Sessions
Transcribed by: Greenie 12
E-mail: onkel44@hotmail.com


I think this is a 12-Bar Blues in A. This is
not the entire song and it�s not exact and there
is no guitar solo. But it will give you the basic
idea of the song.


Main Riff:

A
e-|--------------------------------|---------------------------------|-
B-|--------------------------------|---------------------------------|-
G-|--------------------------------|---------------------------------|-
D-|--------7p5---5~~~-----5--7\----|---------------------------------|-
A-|--0--0------7-------7-----------|--0--0---------------------------|-
E-|--------------------------------|--------3p0--3--5----------------|-

A
e-|--------------------------------|---------------------------------|-
B-|--------------------------------|---------------------------------|-
G-|--------------------------------|---------------------------------|-
D-|--------7p5---5~~~-----5--7\----|---------------------------------|-
A-|--0--0------7-------7-----------|--0--0---------------------------|-
E-|--------------------------------|--------3p0--3--5----------------|-

D
e-|--------------------------------|---------------------------------|-
B-|--------------------------------|---------------------------------|-
G-|--------7p5---5~~~-----5--7\----|---------------------------------|-
D-|--0--0------7-------7-----------|--0--0---------------------------|-
A-|--------------------------------|--------3p0--3--5----------------|-
E-|--------------------------------|---------------------------------|-

D
e-|--------------------------------|---------------------------------|-
B-|--------------------------------|---------------------------------|-
G-|--------------------------------|---------------------------------|-
D-|--------7p5---5~~~-----5--7\----|---------------------------------|-
A-|--0--0------7-------7-----------|--0--0---------------------------|-
E-|--------------------------------|--------3p0--3--5----------------|-

E5 D5 C5
e-|--------------------------------|---------------------------------|-
B-|--------------------------------|---------------------------------|-
G-|--9-----------------------------|--7------------5-----------------|-
D-|--9-----------------------------|--7------------5-----------------|-
A-|--7-----------------------------|--5------------3-----------------|-
E-|--0-----------------------------|---------------------------------|-

A
e-|--------------------------------|---------------------------------|-
B-|--------------------------------|---------------------------------|-
G-|--------------------------------|---------------------------------|-
D-|--------7p5---5~~~-----5--7\----|---------------------------------|-
A-|--0--0------7-------7-----------|--0--0---------------------------|-
E-|--------------------------------|--------3p0--3--5----------------|-

OptimusPrime

Submitted by OptimusPrime at Thu 14 Aug, 2003 5:35 pm

Author: ?
Composer: ?
Publisher: ?
Language: English

Reactions

CommonCrawl [Bot]

Follow Muzikum