Led Zeppelin
Ten Years Gone Ver 5 (Guitar tab)

#-------------------------------PLEASE NOTE-----------------------------------#



#-------------------------------PLEASE NOTE-----------------------------------#




Ten Years Gone
Led Zeppelin - Physical Graffiti
Transcribed by Brian S.


My personal favorite tune...


Intro (Clean Tone) :
A F6
e-----------------------------------|----------0---------------------|
b-------0----0--3--(3)--------3-----|-------2-------0-3--(3)-3-3-----|
g-----2----2----2--(2)------2---2---|-2-----2-----2---2--(2)-----2---|
d-----2---------3--(3)----3-------3-|-2-----2---------3--(3)-------3-|
a--0--0---------0--(0)--0-----------|-0--0--0---------0--(0)---------|
e-----------------------------------|--------------------------------|

A F#dim Em A6 G6
e------------------------|-7---------------------------|
b--2--2--x-x--7--7-------|-8------------7----------5vv-|
g--2--2--x-x--5--5--x-x--|-9-------x-x--6----------4vv-|
d--2--2--x-x--7--7--x-x--|-9-/-/-/-x-x--7-/-/-/-/--5vv-|
a--0--0-------6--6--x-x--|--(strum)--------------------|
e------------------------|-----------------------------|

2nd Intro (Dirty Electric) :
e-------------------|---------------------------------------------------|
b-------------------|--------------0---------------------------2--------|
g-------------------|----2--4-2--4-4--4-6--2----2-4-2--2-2-2-4-2--2-4-2-|
d------------0-3v-2-|----2--2-2--5-5--5-5--4----4-4-4--3-3-3-3-2--2-2-2-|
a-------0-3v--------|-0-----------------------0------------------0------|
e--0-1v-------------|---------------------------------------------------|

e|----------------------------------------|
b|----0-------------------------2---------|
g|o-4-4-4--6-2---2-4-2--2-2-2-4-2--2-4-2-o|
d|o-5-5-5--5-4---4-4-4--3-3-3-3-2--2-2-2-o|
a|-------------0------------------0-------|
e|----------------------------------------|

back to intro
e--------------------------------|
b---0-----------------------0-2--|
g-4-4-4--6-2---2-4-2--2-2-2---2--|
d-5-5-5--5-4---4-4-4--3-3-3---2--|
a------------0-------------------|
e--------------------------------|

1st Solo : (2:30)
e----------------------------------------------------------------------|
b---10/12-\10vv--------------------------------------------------------|
g---9//11-\9vvv--9-/11-\9vvvv--9bv--9bvvv--9br--7-------------9br9p7---|
d----------------9-/11-\9vvvv----------------------9-\5vvvv----------9-|
a----------------------------------------------------------------------|
e----------------------------------------------------------------------|

e-----------------/7--7vvvv----------------|---------------------------|
b-----------------/8--7vvvv----------------|---------------------------|
g--7-h9-p7vvv------------------------------|o-11h14p11--9h11p9--7h9p7-o|
d------------------------------------------|o-------------------------o|
a------------------------------------------|---------------------------|
e----------------------------5--\3--2vvvv--|---------------------------|

e--------------------------------------------------------------------------|
b--------------------/12vv---------------------15--17bvv--17b19vv-17b20r17-|
g--11h14p11--9h11p9--/11vv--(/13)--16vvvv--14b-----------------------------|
d--------------------------------------------------------------------------|
a--------------------------------------------------------------------------|
e--------------------------------------------------------------------------|

e------------------------15-16-17--17bv-------------17bvv-17-15-17p15--|
b--15--15h17-15vvv---17b----------------15vvv-17bvv--------------------|
g----------------------------------------------------------------------|
d----------------------------------------------------------------------|
a----------------------------------------------------------------------|
e----------------------------------------------------------------------|


e---------------------------------------------17--17\15-----------|
b---------------15h17p15--17br17p15----15vv-------------17--------|
g--16-\\12vvvv----------------------16---------------------14vvv--|
d-----------------------------------------------------------------|
a-----------------------------------------------------------------|
e-----------------------------------------------------------------|
3x
e---------------------------------------|---------------------------|
b---------------------------------------|---------------------------|
g--14-/16-\14vv-------------------------|o-11h14p11--9h11p9--7h9p7-o|
d--14-/16-\14vv--14p12------------------|o-------------------------o|
a----------------------14--\12--\9vvvv--|---------------------------|
e---------------------------------------|---------------------------|

e-----------------------------------15-16-17--17br--------------------------|
b-----------------------15-16--17bvv----------------17br17p15vvv-17br17p15--|
g----7h9--//16vvvv--14b-----------------------------------------------------|
d--7------------------------------------------------------------------------|
a---------------------------------------------------------------------------|
e---------------------------------------------------------------------------|


e-------------------------------|
b-----17--17br17p15-----17vvv\--|
g--16---------------16----------| than it goes to a G chord in the
d-------------------------------| bridge : (Do you ever really want somebody)
a-------------------------------| and i believe a Cmaj7
e-------------------------------|

(4:20)

2nd little Solo : (4x)

Guitar 1 and 2 are Dirty Electrics :

Guitar 1 : Guitar 1 and 2 ------\
e-----------------------------------------------------------------------|
b--------------------------------------------15b--r15vvv-14--15--15vvvv-|
g--14---14-14--16bvvv-16--14--16--14vvv--14--14b--r14vvv-14--14--14vvvv-|
d-----------------------------------------------------------------------|
a-----------------------------------------------------------------------|
e-----------------------------------------------------------------------|

Than Guitar 3 plays @ around (6:00)

e-------17--------|
b--17bvvvvvv17br--|
g-----------------|
d-----------------|
a-----------------|

Copyrights
Author: ?
Composer: ?
Publisher: ?
More details
Language: English

Reactions

CommonCrawl [Bot]

Follow Muzikum