Led Zeppelin
Stairway To Heaven Solo Ver 6 (Guitar tab)

this is the solo 2 stairway 2 heaven, no other tabz hav it correct. itz really not that hard. 2 play it lyke plage doz iz impossible

aight here it goes, itz just a bluez scale basically, timing aint great, listen 2 the solo:

S-Slide
p-pull off
lb-light bend
b-normal bend
hb-heavy bend

E---------8-5---------------------------5-8-8---b10--8-hb5-8--8-5----------------------
B--------------8-5-------------------------------------------------8-5---------------------
G------------------7-5--------------------------------------------------7-5---------------
D-----------------------7-5--------------------------------------------------7-5-----------
A-5-lb7--------------------7-5------------------------------------------------------------
E--------------------------------8-lb5------------------------------------------------------

E---------------5-8--8-5------------------------------------------------------5-8---------
B-----------5-8-----------8-5--------------------------------------------5-8--------------
G------5-7---------------------7-5---------------------------------5-7--------------------
D-5-7------------------------------7-5------------------------5-7-------------------------
A----------------------------------------7-5-------------5-7-------------------------------
E---------------------------------------------8-5---5-8------------------------------------

E-8-5-------------------------------5-8-5-8-8-5-8-5--|--20-p17---------------| repeat
B------8-5---------------------5-8----------------------|-----------17------------| as
G-----------7-5-----------5-7---------------------------|-------------------------| much
D----------------7-5--5-7-------------------------------|--------------------------| as
A-----------------------------------------------------------------------------------| needed
E------------------------------------------------------------------------------------|

E-8-5-------------------------|-hb8-lb7-hb8-lb5-b8---b5--------------|
B------8-5--------------------|----------------------------7--5------------|
G-----------7-5---------------|----------------------------------7--5------|
D----------------7-5----------|----------------------------------------lb7-|
A---------------------7-5-----|---------------------------------------------|
E--------------------------8-5|---------------------------------------------|
(slow) (slow) (fast)
E-hb8-lb7-hb8-lb5-b8---5---------------hb8-lb7-hb8-lb5-b8-8-5------------
B-------------------------------8-5---------------------------------------8-5--------
G------------------------------------7-5--------------------------------------7-5----
D-----------------------------------------------------------------------------------7--
A--------------------------------------------------------------------------------------
E---------------------------------------------------------------------------------------
(extremely fast)
high=E-hb8-lb7-hb8-lb5-b-8-5-8-5-8-5-8-5-8(as much as needed)-hb10

thatz it

Copyrights
Author: ?
Composer: ?
Publisher: ?
More details
Language: English

Reactions

CommonCrawl [Bot]

Follow Muzikum