Led Zeppelin
Royal Orleans Ver 3 (Guitar tab)

From: awilliam@yin.UCSD.EDU (Alan Williams)
Subject: tab submission: royal_orleans, led zeppelin

Royal Orleans




INTRO: 2X

guitar1 H
|---------------------------------|----------------------------------|
|---5-7-5--/8-----5-7-5--/8-------|---5-7-5---8--7--5------5---------|
|---6-7-6--/9-----6-7-6--/9-------|---6-7-6---9--7--5^6----6---------|
|---------------------------------|---------------------7------------|
|---------------------------------|----------------------------------|
|---------------------------------|----------------------------------|
| 1 4 1 1 1 4 1 1 |
| 2 4 2 2 2 4 1 2 3 2 |
| |
|guitar2 |
|---------------------------------|----------------------------------|
|---------------------------------|----------------------------------|
|---------------------------------|----------/4--2-------------------|
|---------------------------------|-----------------4-2--------------|
|----------0-------------0--------|-------00------------4--0---------|
|---0-2-2---------0-2-2-----------|---0-2----------------------------|
1 1 1 3 1 3 1 3


VERSE1: 2X

|-------------------|-------------------|-------------------|-------------------|
|--9-9---9-9-9--7---|--9-9---9-9-9--7---|--9-9---9-9-9--7---|--9-9---9-9-9--7---|
|--9-9---9-9-9--7---|--9-9---9-9-9--7---|--9-9---9-9-9--7---|--9-9---9-9-9--7---|
|-------------------|-------------------|-------------------|-------------------|
|-------------------|-------------------|-------------------|-------------------|
|------0------------|------0------------|------0------------|------0------------|



INTRO: 2X


VERSE2: 4X

|-------------------10-101010-----|--------------------10-1010-------|
|--9-9-7---9-9-9-7---9--9-9-9-----|--9-9-7---9-9-9-7----9--9-9-------|
|--9-9(7)--9-9-9(7)---------------|--9-9(7)--9-9-9(7)----------------|
|---------------------------------|----------------------------------|
|---------------------------------|----------------------------------|
|---------------------------------|----------------------------------|
3 3 1 4 4 4 4 |
3 3 1 3 3 3 3 | tail end for
V last verse

--------121212121212-|
--------121212121212-|
---------------------|
---------------------|
---------------------|
---------------------|
4 4 4 4 4 4
4 4 4 4 4 4
^L
INTRO: 4X

VERSE2: 4X

SOLO: 4X


|------------------------12--12-12-12--|------------------------12--12-12-----|
|--11-11-9--11-11-11-9---11--11-11-11--|--11-11-9--11-11-11-9---11--11-11-----|
|--11-11(9)-11-11-11(9)----------------|--11-11(9)-11-11-11(9)----------------|
|--------------------------------------|--------------------------------------|
|--------------------------------------|--------------------------------------|
|--------------------------------------|--------------------------------------|
3 3 1 3 3 3 1 4 4 4 4
3 3 1 3 3 3 1 3 3 3 3


INTRO: 2X

BRIDGE: 4X

H H H H
|--------------------------------------|--------------------------------------|
|----------------------------(3)(3)----|----------------------------(3)-------|
|-----------------------------2--2-----|-----------------------------2--------|
|--------------/4--2----------0--0-----|--------------/4--2----------0--------|
|---------0-^2-------------------------|---------0-^2-------------------------|
|---0-^2--------------0-0-0------------|---0-^2--------------0-0-0------------|
1 1 4 1 3 3
1 1

VERSE2: 8X



Music by Jimmy Page

Tab'd by Alan Williams



/: slide into note
^ H: hammer on
(): note fingered, slightly played
numbers underneath are fingers, just suggestions
(1-index, 2-middle, 3-ring, 4-pinky)

Copyrights
Author: ?
Composer: ?
Publisher: ?
More details
Language: English

Reactions

CommonCrawl [Bot]

Follow Muzikum