Led Zeppelin
Living Loving Maid (she's Just A Woman) (Guitar tab)

PROPS GO TO: -SM-







Living Loving Maid (she's just a woman)
Tabbed by: -SM-
Alright, i seperated these in different riffs. You'll have to listen to the song and play along with it to know exactly when to play what. Again, they're seperated to help out for learning the song.
Riff A
This is pretty straightforeward, its the intro riff for the song,
it's played on many occasions, there are two slight vibrato effects
in the riff.
|------------------------------|
|------------------------------|
|------------------------------|
|------------------------------|
|-0--3-0-3-4-5--------0-3~0----|
|--------------3~-3-3----------|


Riff B
Again pretty easy, its basicly a G then an E. There'res also
a small vibrato at the end of the riff, it's pretty essential.
|-------------------------|
|-------------------------|
|-------------------------|
|---2----2---2-2-2---2----|
|---0----0---0-0-0-2~0----|
|-3----3------------------|

Riff C
This is played often, an open A played 16 times.
(use alternate picking)
|-----------------------------------|
|-----------------------------------|
|-----------------------------------|
|-----------------------------------|
|-0-0-0-0-0-0-0-0-0-0-0-0-0-0-0-0---|
|-----------------------------------|

Chorus Riff
This is the chorus, listen to the rythm of the song, i tabbed out pretty much
how often you'll hear the chords
|-------------------5-5-5-5-5-5-5-5-5-|-------------------|--------|
|-3-3-3-3-3-3-3-3-3-5-5-5-5-8-8-8-8-8-|-3-3-3-3-3-3-3-3--3|---5----|
|-5-5-5-5-5-5-5-5-5-6-6-6-6-6-6-6-6-6-|-5-5-5-5-5-5-5-5--5|---7----|
|-4-4-4-4-4-4-4-4-4-7-7-7-7-5-5-5-5-5-|-4-4-4-4-4-4-4-4--4|---6----|
|-5-5-5-5-5-5-5-5-5-7-7-7-7-7-7-7-7-7-|-5-5-5-5-5-5-5-5--5|---7----|
|-------------------5-5-5-5-5-5-5-5-5-|-------------------|--------|

The solo is pretty
easy and straight foreward.
play it slowly at first to get it right.
|----------------------------------------------------------------------------------|
|---------------------------17b19-17b19-17b19-17-15--------------------------------|
|-------14----14-16--16~-14-------------------------17~--------14----14-16-16~-14--|
|-14h16----16-------------------------------------------14h16----16----------------|
|----------------------------------------------------------------------------------|
|----------------------------------------------------------------------------------|


This is the only 'difficult' part of the solo, I play it with hammerons, others just
mute the string, depends on your taste, remember the ending vibrato.
|-------------------------------------------------|
|-------------------------------------------------|
|-7h8-8h9-9h10-11h12-12h13-13h14---13-15-13-15~---|
|-------------------------------------------------|
|-------------------------------------------------|
|-------------------------------------------------|
last notes: Be on the lookout of vibratos on this tab and always try it out with the record to make sence of it all, i didn't tab the wah effect since I never really bothered to figure it out, have fun.
-SM-

Tablature Legend
----------------
h - hammer-on
p - pull-off
b - bend
pb - pre-bend
r - bend release (if no number after the r, then release immediately)
~ - vibrato

Copyrights
Author: ?
Composer: ?
Publisher: ?
More details
Language: English

Reactions

CommonCrawl [Bot]

Follow Muzikum