Led Zeppelin
Good Times Bad Times Ver 7 (Guitar tab)

This is a great led zeppelin song and 1 of my favorites. I tabbed it out for u in almost the exact
way page plays it. I hope u enjoy it. Standard tuning and listen to record to get rythm.

Verse

------------------------
------------------------
9-9-------7--7---------- Repeat X4
9-9-----7--7----4-7-----
7-7----5------5----4-5-6
0-0---------------------

Chours

--------------------------
--------------------------
6-6-7-7-8-8-9-9-8-8-8-8---
7-7-7-7-9-9-9-9-9-9-9-9--- the back to verse
7-7-5-5-9-9-7-7-9-9-9-9---
5-5-5-5-7-7-7-7-7-7-7-7---



I haven't figure out the solo yet i am working on that and play the first two chords of

Copyrights
Author: ?
Composer: ?
Publisher: ?
More details
Language: English

Reactions

CommonCrawl [Bot]

Follow Muzikum