Led Zeppelin
Babe Im Gonna Leave You Guitar Solos Ver 3 (Guitar tab)

Artist: Led Zeppelin
Song: Babe I'm Gonna Leave You (guitar solos)
Tabbed by: Rhyknow17


1st solo (1:38)
E|-------7h10s12-----7h10s12�-10h8p7-8-7h8p7-5-|
B|------8----------8---------------------------|
G|-----9---------9-----------------------------|
D|---------------------------------------------|
A|---------------------------------------------|
E|---------------------------------------------|

2nd solo (3:16)
E|--0-1-3-1-0h1p0----0----|--------------------|
B|----------------3-----3-|-1h3p1p0----------1-|
G|------------------------|---------2-2----2---|
D|------------------------|--------------------|
A|------------------------|--------------------|
E|------------------------|--------------------|

E|---------------------------------------------------------|
B|--------------5------------------------------------------|
G|--------4-5-7----7-5-4h5p4---4---------------------------|
D|-----7---------------------7---7-5-----------------------|
A|-----------------------------------8h7p5--5--------------|
E|--------------------------------------------8-7---7h8p7-5|


3rd solo (4:52)
E|-----7h10�-8-7-8h7-----7-5----|-------------------|---------------|
B|---8---------------10------8-7|-------------------|-5-5-----------|
G|-9----------------------------|-6h7�5-4-5-4-2-4---|--------7p5h7~-|
D|------------------------------|-----------------2-|---------------|
A|------------------------------|-------------------|---------------|
E|------------------------------|-------------------|---------------|

E|-----------------------|--------------------------------------------|
B|-5-4-------------------|--------------------------------------------|
G|-----7-7p5�5-5�7-5-----|--------------------------------------------|
D|-------------------7---|---------5-----5----------5-----5-----------|
A|---------------------7~|-----5-7---5h7---7~-5-5h7---5h7---7-5---5---|
E|-----------------------|-5-8----------------------------------8--8-5|

E|-------7h10-----| 8x |-10-8-7h8p7----7----------------------------|
B|------8---------| |-----------10----10-8-7-8---10-----10-10-10-|
G|-----9----------| |--------------------------------------------|
D|----------------| |--------------------------------------------|
A|----------------| |--------------------------------------------|
E|----------------| |--------------------------------------------|

Copyrights
Author: ?
Composer: ?
Publisher: ?
More details
Language: English

Reactions

CommonCrawl [Bot]

Follow Muzikum