Led Zeppelin
Tangerine Ver 4 (Guitar tab)

Intro/Verse:
E|--------0-0-0----3---3-2-2--------2---2-0-0-0-0-0-0--3---3-2-2---2-0-
B|--------1-1-1-0--0---0-3-3-----3--3---3-0-0-1-1-1-1--0---0-3-3---3-1-
G|--------2-2-2-0--0---0-2-2---2----2---2-0-0-2-2-2-2--0---0-2-2---2-0-
D|--------2-2-2-2--0---0-0-0---0----0---0-----2-2-2-2--0---0-0-0---0-2-
A|--------0-0-0-0--2---2-0-0--------0---0-----0-0-0-0--2---2-0-0---0-3-
E|-----------------3---3-------------------------------3---3-----------

E|0---0--------------------2---2--2-2-2--3-3--2--2-|
B|1---1--------------------3---3--3-3-3--0-0--3--3-|
G|0---0------0-0-----0-0---2---2--2-2-2--0-0--2--2-|
D|2---2-2---2------0-------0---0--0-0-0--0-0--0--0-|
A|3---3-3-3------2---------0---0--0-0-0-------0--0-|
E|-------------------------------------------------|

  • LesPaul0

    Submitted by

    LesPaul0 at Fri 08 Aug, 2003 5:29 am

  • <
Copyrights
Author: ?
Composer: ?
Publisher: ?

Reactions

CommonCrawl [Bot]

Follow Muzikum