Led Zeppelin
Good Times Bad Times Ver 3 (Guitar tab)

The intro is just a bunch of �E� chords
The first verse goes like this

---------------------------------------------------------------------------------------
----------------3-----3-----------------------------------------------------------------
--3-3--------2----2-------0----1-------------------------------------------------------
--2-2-----0-------------0--------------0-1---------------------------------------------
--2-2----------------------------4-----------------------------------------------------
---------------------------------------------------------------------------------------
repeat x4



the chorous goes like this

---------------------------------2--------------------------------------
---------5--5----------5--5-----3-----2--------------------------------
--4--4----4--4--4--4---4--4-----2-----2--------1-------------------------
--4--4----2--2--4--4---2--2-----------2--------2-------------------------
--2--2----------2--2----------------------------2------------------------
-------------------------------------------------------------------------

the second verse goes like this


----------0--1--0--1--------------------------------------
----------0--1--0--1-------4---2--4-----------------------
---------------------------4---2--4----------------------
--4---4--------------------4---2--4----------------------
-4---4--------------------------------------------------
-2--2--------------------------------------------------
repeat x8

Copyrights
Author: ?
Composer: ?
Publisher: ?
More details
Language: English

Reactions

CommonCrawl [Bot]

Follow Muzikum