Led Zeppelin
Kashmir Ver 5 (Guitar tab)

Kashmir
Led Zeppelin
Tabbed By Tom Arthur

1+2+3+4+5+6+7+8+ 1+2+3+4+5+6+7+8+ 1+2+3+4+5+6+7+8+ 1+2+3+4+5+6+7+8+
D|----------------|----------------|----------------|----------------|
A|----------------|----------------|----------------|----------------|
G|222---222---333-|--333---444---44|4---555---555---|777---222---333-|
D|000---000---000-|--000---000---00|0---000---000---|000---000---000-|
A|555---555---555-|--555---555---55|5---555---555---|555---555---555-|
D|----------------|----------------|----------------|----------------|

1+2+3+4+5+6+7+8+ 1+2+3+4+5+6+7+8+
D|----------------|----------------||
A|----------------|----------------||
D|--333---444---44|4---555---555---||
G|--000---000---00|0---000---000---||
A|--555---555---55|5---555---555---||
D|----------------|----------------||

1+2+3+4+5+6+7+8+ 1+2+3+4+5+6+7+8+ 1+2+3+4+5+6+7+8+
D|-----------------|----------------|-----------------||
A|-----------------|----------------|-----------------||
G|o777---222---333-|--333---444---44|4---555---555---o|| Repeat x4
D|o000---000---000-|--000---000---00|0---000---000---o||
A|-555---555---555-|--555---555---55|5---555---555----||
D|-----------------|----------------|-----------------||

/ / / / / / / / / / / /
Ooh let the sun beam down upon my face stars to fill my dreams

/ / / / / / / / / / / /
I am a traveler of both time and space to be where I have been

/ / / / / / / / / / / /
Secret elders of a gentle race this world is seldom seen

/ / / / / / / / / / / /
Talk of days in which they sit and wait all will be revealed


1+2+3+4+5+6+7+8+ 1+2+3+4+5+6+7+8+ 1+2+3+4+5+6+7+8+ 1+2+3+4+5+6+7+8+
D|-12-12-10-10-7-7-|5--5--3--3-------||----------------|----------------||
A|-0--0--0--0--0-0-|0--0--0--0-------||----------------|----------------||
G|o12-11-10-9--7-6-|5--4--3--2------o||--333---444---44|4---555---555---||
D|o0--0--0--0--0-0-|0--0--0--0--320-o||--000---000---00|0---000---000---||
A|-----------------|-----------------||--555---555---55|5---555---555---||
D|-----------------|-----------------||----------------|----------------||

1+2+3+4+5+6+7+8+ 1+2+3+4+5+6+7+8+ 1+2+3+4+5+6+7+8+
D|-----------------|----------------|-----------------||
A|-----------------|----------------|-----------------||
G|o777---222---333-|--333---444---44|4---555---555---o|| Repeat x4
D|o000---000---000-|--000---000---00|0---000---000---o||
A|-555---555---555-|--555---555---55|5---555---555----||
D|-----------------|----------------|-----------------||

/ / / / / / / / / / / / /
Talk of song from tongues of lilting grace whose sounds caress my ear

/ / / / / / / / / / / /
But not a word I heard could I relate the story was quite clear

/ / / / / / / / / / / /
Woah oh Woah oh

/ / / / / / / / / / / /
Woah oh Woah oh


1+2+3+4+5+6+7+8+ 1+2+3+4+5+6+7+8+ 1+2+3+4+5+6+7+8+ 1+2+3+4+5+6+7+8+
D|-12-12-10-10-7-7-|5--5--3--3-------||----------------|----------------|
A|-0--0--0--0--0-0-|0--0--0--0-------||----------------|----------------|
G|o12-11-10-9--7-6-|5--4--3--2------o||--333---444---44|4---555---555---|
D|o0--0--0--0--0-0-|0--0--0--0--320-o||--000---000---00|0---000---000---|
A|-----------------|-----------------||--555---555---55|5---555---555---|
D|-----------------|-----------------||----------------|----------------|
1+2+3+4+5+6+7+8+ 1+2+3+4+5+6+7+8+
D|12-12-10-10-7-7-|5--5--3--3------||
A|0--0--0--0--0-0-|0--0--0--0------||
G|12-11-10-9--7-6-|5--4--3--2------||
D|0--0--0--0--0-0-|0--0--0--0--320-||
A|----------------|----------------||
D|----------------|----------------||


_______________________________________________________
1,2,3,4| 5.|
1+2+3+4+5+6+7+8+ 1+2+3+4+5+6+7+8+ 1+2+3+4+5+6+7+8+ 1+2+3+4+5+6+7+8+ 1+2+3+4+5+6+7+8+
D|-----------------|----------------|----------------|-----------------||----------------||
A|-----------------|----------------|----------------|-----------------||----------------||
G|o----------------|----------------|----------------|----------------o||----------------||
D|o2-----2---2---11|\-2-------------|2-----2---2---11|\-2-------320--0o||\-2-------------||
A|-0-----0---0---12|\-0-------------|0-----0---0---12|\-0----------02--||\-0-------------||
D|-----------------|----------------|----------------|-----------------||----------------||


/ / / / / / / / / / / / / / / /
Ooooooooooh baby I've been

/ / / / / / / / / / / / / / / /
flyin' Looord yeah mama yeah

/ / / / / / / / / / / / / / / /
Ain't no denyin Oh

/ / / / / / / / / / / / / / / /
Oooooooh Yeah I've been flyin'

/ / / / / / / / / / / / / / / /
Mama ma ain't no denyin No denyin'


1+2+3+4+5+6+7+8+ 1+2+3+4+5+6+7+8+
D|-12-12-10-10-7-7-|5--5--3--3-------||
A|-0--0--0--0--0-0-|0--0--0--0-------||
G|o12-11-10-9--7-6-|5--4--3--2------o||
D|o0--0--0--0--0-0-|0--0--0--0--320-o||
A|-----------------|-----------------||
D|-----------------|-----------------||

1+2+3+4+5+6+7+8+ 1+2+3+4+5+6+7+8+ 1+2+3+4+5+6+7+8+ 1+2+3+4+5+6+7+8+
D|-5-5-5-5-5-5-5-5-|5-5-5-5-5-5-5-5-|7-7-7-7-7-7-7-7-|7-7-7-7-7-7-7-7--|
A|-5-5-5-5-5-5-5-5-|5-5-5-5-5-5-5-5-|7-7-7-7-7-7-7-7-|7-7-7-7-7-7-7-7--|
G|o7-7-7-7-7-7-7-7-|7-7-7-7-7-7-7-7-|9-9-9-9-9-9-9-9-|9-9-9-9-9-9-9-9-o| repeat x6
D|o5-5-5-5-5-5-5-5-|5-5-5-5-5-5-5-5-|7-7-7-7-7-7-7-7-|7-7-7-7-7-7-7-7-o|
A|-5-5-5-5-5-5-5-5-|5-5-5-5-5-5-5-5-|7-7-7-7-7-7-7-7-|7-7-7-7-7-7-7-7--|
D|-5-5-5-5-5-5-5-5-|5-5-5-5-5-5-5-5-|7-7-7-7-7-7-7-7-|7-7-7-7-7-7-7-7--|


/ / / / / / / / / / / / / / / /
All I see turns to brooooown

/ / / / / / / / / / / / / / / /
As the sun burns the grooouund

/ / / / / / / / / / / / / / / /
And my eyes fill with saaand

/ / / / / / / / / / / / / / / /
As I scan this wasted land

/ / / / / / / / / / / / / / / /
tryin' to find tryin' to find where I'd beeeeeeeeeeeeeeen


1+2+3+4+5+6+7+8+ 1+2+3+4+5+6+7+8+ 1+2+3+4+5+6+7+8+ 1+2+3+4+5+6+7+8+
D|----------------|----------------|----------------|----------------|
A|----------------|----------------|----------------|----------------|
G|222---222---333-|--333---444---44|4---555---555---|777---222---333-|
D|000---000---000-|--000---000---00|0---000---000---|000---000---000-|
A|555---555---555-|--555---555---55|5---555---555---|555---555---555-|
D|----------------|----------------|----------------|----------------|

1+2+3+4+5+6+7+8+ 1+2+3+4+5+6+7+8+
D|-12-12-10-10-7-7-|5--5--3--3-------||
A|-0--0--0--0--0-0-|0--0--0--0-------||
G|o12-11-10-9--7-6-|5--4--3--2------o||
D|o0--0--0--0--0-0-|0--0--0--0--320-o||
A|-----------------|-----------------||
D|-----------------|-----------------||

1+2+3+4+5+6+7+8+ 1+2+3+4+5+6+7+8+
D|----------------|----------------||
A|----------------|----------------||
D|--333---444---44|4---555---555---||
G|--000---000---00|0---000---000---||
A|--555---555---55|5---555---555---||
D|----------------|----------------||

1+2+3+4+5+6+7+8+ 1+2+3+4+5+6+7+8+ 1+2+3+4+5+6+7+8+
D|-----------------|----------------|-----------------||
A|-----------------|----------------|-----------------||
G|o777---222---333-|--333---444---44|4---555---555---o|| Repeat x4
D|o000---000---000-|--000---000---00|0---000---000---o||
A|-555---555---555-|--555---555---55|5---555---555----||
D|-----------------|----------------|-----------------||


/ / / / / / / / / / / /
Oh pilot of the storm who leaves no trace like thoughts inside a dream

/ / / / / / / / / / / /
Heed the path that led me to that place yellow desert screen

/ / / / / / / / / / / /
My Shangri-La beneath the summer moon I will return again

/ / / / / / / / / / / /
Sure as the dust that floats high in June when movin' through Kashmir


1+2+3+4+5+6+7+8+ 1+2+3+4+5+6+7+8+ 1+2+3+4+5+6+7+8+ 1+2+3+4+5+6+7+8+
D|-12-12-10-10-7-7-|5--5--3--3-------||----------------|----------------||
A|-0--0--0--0--0-0-|0--0--0--0-------||----------------|----------------||
G|o12-11-10-9--7-6-|5--4--3--2------o||--333---444---44|4---555---555---||
D|o0--0--0--0--0-0-|0--0--0--0--320-o||--000---000---00|0---000---000---||
A|-----------------|-----------------||--555---555---55|5---555---555---||
D|-----------------|-----------------||----------------|----------------||

1+2+3+4+5+6+7+8+ 1+2+3+4+5+6+7+8+ 1+2+3+4+5+6+7+8+
D|-----------------|----------------|-----------------||
A|-----------------|----------------|-----------------||
G|o777---222---333-|--333---444---44|4---555---555---o|| Repeat x4
D|o000---000---000-|--000---000---00|0---000---000---o||
A|-555---555---555-|--555---555---55|5---555---555----||
D|-----------------|----------------|-----------------||

/ / / / / / / / / / / /
Oh father of the four winds fill my sails across the sea of years

/ / / / / / / / / / / /
With no provision but an open face 'long the straits of fear

/ / / / / / / / / / / /
Woah oh Woah oh

/ / / / / / / / / / / /
Woah oh Woah oh


1+2+3+4+5+6+7+8+ 1+2+3+4+5+6+7+8+ 1+2+3+4+5+6+7+8+ 1+2+3+4+5+6+7+8+
D|-12-12-10-10-7-7-|5--5--3--3-------||----------------|----------------|
A|-0--0--0--0--0-0-|0--0--0--0-------||----------------|----------------|
G|o12-11-10-9--7-6-|5--4--3--2------o||--333---444---44|4---555---555---|
D|o0--0--0--0--0-0-|0--0--0--0--320-o||--000---000---00|0---000---000---|
A|-----------------|-----------------||--555---555---55|5---555---555---|
D|-----------------|-----------------||----------------|----------------|
Ooooooooooooooooooooooooooooooooooh

1+2+3+4+5+6+7+8+ 1+2+3+4+5+6+7+8+ 1+2+3+4+5+6+7+8+ 1+2+3+4+5+6+7+8+
D|-5-5-5-5-5-5-5-5-|5-5-5-5-5-5-5-5-|7-7-7-7-7-7-7-7-|7-7-7-7-7-7-7-7--|
A|-5-5-5-5-5-5-5-5-|5-5-5-5-5-5-5-5-|7-7-7-7-7-7-7-7-|7-7-7-7-7-7-7-7--|
G|o7-7-7-7-7-7-7-7-|7-7-7-7-7-7-7-7-|9-9-9-9-9-9-9-9-|9-9-9-9-9-9-9-9-o| repeat x10
D|o5-5-5-5-5-5-5-5-|5-5-5-5-5-5-5-5-|7-7-7-7-7-7-7-7-|7-7-7-7-7-7-7-7-o|
A|-5-5-5-5-5-5-5-5-|5-5-5-5-5-5-5-5-|7-7-7-7-7-7-7-7-|7-7-7-7-7-7-7-7--|
D|-5-5-5-5-5-5-5-5-|5-5-5-5-5-5-5-5-|7-7-7-7-7-7-7-7-|7-7-7-7-7-7-7-7--|


/ / / / / / / / / / / / / / / /
Well, when I want, when I'm on my way, yeah

/ / / / / / / / / / / / / / / /
When I see, when I see the way, you stay, yeah

/ / / / / / / / / / / / / / / /

/ / / / / / / / / / / / / / / /

/ / / / / / / / / / / / / / / /
Ooh, yeah-yeah, ooh, yeah-yeah, well I'm down, yes

/ / / / / / / / / / / / / / / /
Ooh, yeah-yeah, ooh, yeah-yeah, well I'm down, so down

/ / / / / / / / / / / / / / / /
Ooh, my baby, oooh, my baby, let me take you there

/ / / / / / / /

Hold
D|7---------------|||
A|7---------------|||
G|9---------------|||
D|7---------------|||
A|7---------------|||
D|7---------------|||

On the live version it stops here, but on Physical Graffiti it fades off and is untranscribable.

Copyrights
Author: ?
Composer: ?
Publisher: ?
More details
Language: English

Reactions

CommonCrawl [Bot]

Follow Muzikum