Led Zeppelin
Kashmir Ver 3 (Guitar tab)

Led Zeppelin � Kashmir
[Riff 1a]
D|--------------------------------------------------------------------------
A|--------------------------------------------------------------------------
G|--2---2---2------2---2---2------3---3---3------3---3---3------------------
D|--0---0---0�-----0---0---0--0---0---0---0------0---0---0--0---------------
A|--5---5---5------5---5---5------5---5---5------5---5---5------------------
D|--------------------------------------------------------------------------

D|--------------------------------------------------------------------------
A|--------------------------------------------------------------------------
G|--4---4---4------4---4---4------5---5---5------5---5---5------------------
D|--0---0---0------0---0---0--0---0---0---0------0---0---0--0---------------
A|--5---5---5------5---5---5------5---5---5------5---5---5------------------
D|--------------------------------------------------------------------------

D|--------------------------------------------------------------------------
A|--------------------------------------------------------------------------
G|--7---7---7---------------------------------------------------------------
D|--0---0---0---------------------------------------------------------------
A|--5---5---5---------------------------------------------------------------
D|--------------------------------------------------------------------------

[Riff 1b]

D|--------------------------------------------------------------------------
A|--------------------------------------------------------------------------
G|--2---2---2------3---3---3------3---3---3------4---4---4------------------
D|--0---0---0�-0---0---0---0------0---0---0--0---0---0---0------------------
A|--5---5---5------5---5---5------5---5---5------5---5---5------------------
D|--------------------------------------------------------------------------

D|--------------------------------------------------------------------------
A|--------------------------------------------------------------------------
G|--4---4---4------5---5---5------5---5---5------7---7---7------------------
D|--0---0---0--0---0---0---0------0---0---0--0---0---0---0------------------
A|--5---5---5------5---5---5------5---5---5------5---5---5------------------
D|--------------------------------------------------------------------------

[Riff 1c]

D|--------------------------------------------------------------------------
A|--------------------------------------------------------------------------
G|--2---2---2------3---3---3------3---3---3---------------------------------
D|--0---0---0�-0---0---0---0------0---0---0--0------------------------------
A|--5---5---5------5---5---5------5---5---5---------------------------------
D|--------------------------------------------------------------------------

D|--------------------------------------------------------------------------
A|--------------------------------------------------------------------------
G|--4---4---4------4---4---4------7---7---7---------------------------------
D|--0---0---0------0---0---0--0---0---0---0---------------------------------
A|--5---5---5------5---5---5------5---5---5---------------------------------
D|--------------------------------------------------------------------------

[Riff 1d]

D|--------------------------------------------------------------------------
A|--------------------------------------------------------------------------
G|--2---2---2------3---3---3------3---3---3---------------------------------
D|--0---0---0--0---0---0---0------0---0---0---0-----------------------------
A|--5---5---5------5---5---5------5---5---5---------------------------------
D|--------------------------------------------------------------------------

D|--------------------------------------------------------------------------
A|--------------------------------------------------------------------------
G|--4---4---4------4---4---4------------------------------------------------
D|--0---0---0------0---0---0------------------------------------------------
A|--5---5---5------5---5---5------------------------------------------------
D|--------------------------------------------------------------------------

[Riff 1e]

D|--------------------------------------------------------------------------
A|--------------------------------------------------------------------------
G|--2---2---2------3---3---3------3---3---3---------------------------------
D|--0---0---0--0---0---0---0------0---0---0---------------------------------
A|--5---5---5------5---5---5------5---5---5---------------------------------
D|--------------------------------------------------------------------------

[Riff 2a]

D|--12---12---10---10----7----7----5----5----3----3-------------------------
A|---0----0----0----0----0----0----0----0----0----0-------------------------
G|--12---11---10----9----7----6----5----4----3----2-------------------------
D|---0---12----0---10----0----7----0----5----0----3----3-2-0------0---------
A|-------------------------------------------------------------0-2----------
D|--------------------------------------------------------------------------

[Riff 2b]

D|--12---12---10---10----7----7----5----5----3----3-------------------------
A|---0----0----0----0----0----0----0----0----0----0-------------------------
G|--12---11---10----9----7----6----5----4----3----2-------------------------
D|---0---12----0---10----0----7----0----5----0----3----3-2-0----------------
A|--------------------------------------------------------------------------
D|--------------------------------------------------------------------------

[Riff 3a]

D|--------------------------------------------------------------------------
A|--------------------------------------------------------------------------
G|--------------------------------------------------------------------------
D|--2------2---2---11\-2-----------2------2---2---11\-2-----3-2-0-----0-----
A|--0------0---0---12\-0-----------0------0---0---12\-0-----------0-2-------
D|--------------------------------------------------------------------------

[Riff 3b]

D|--------------------------------------------------------------------------
A|--------------------------------------------------------------------------
G|--------------------------------------------------------------------------
D|--2------2---2---11\-2-----------2------2---2---11\-2---------------------
A|--0------0---0---12\-0-----------0------0---0---12\-0---------------------
D|--------------------------------------------------------------------------



[Riff 1a]
[Riff 1b]

[Riff 1b]
Oh, let the sun beat down upon my face
Stars to fill my dreams
[Riff 1b]
I am a traveler of both time and space
To be where I have been
[Riff 1b]
Secret elders of a gentle race
This world is seldom seen
[Riff 1d]
Talk of days for which they sit and wait
All will be revealed

[Riff 2b]
[Riff 2b]
[Riff 1c]

[Riff 1b]
Talk and song from tongues of lilting grace
Whose sounds caress my ear
[Riff 1b]
But not a word I heard could I relate
The story was quite clear
[Riff 1b]
Whoa-oh-hoh,
[Riff 1d]
whoa-oh-wa-oh


[Riff 2b]
[Riff 2b]
[Riff 1e]
[Riff 2a]

[Riff 3a] [Riff 3a]
Oooh, oh baby, I been flyin'
[Riff 3a]
Lord, yeah, mama, there ain't no denyin'
[Riff 3a]
Oh, oooh yes, I've been flying
[Riff 3b]
Mama ma, ain't no denyin', no denyin'

[Riff 2b]
[Riff 2b]

Oh, all I see turns to brown
As the sun burns the ground
And my eyes fill with sand
As I scan this wasted land
[Riff 1a]
Tryin' to find, tryin' to find where I beeeeen-ahhh-ahhhh

[Riff 1b]

[Riff 1b]
Oh, pilot of the storm who leaves no trace
Like thoughts inside a dream
[Riff 1b]
Heed the path that led me to that place
Yellow desert screen
[Riff 1b]
My Shangri-La beneath the summer moon
I will return again
[Riff 1d]
Sure as the dust that floats high in June
When movin' through Kashmir

[Riff 2b]
[Riff 2b]
[Riff 1c]

[Riff 1b]
Oh, father of the four winds, fill my sails
Across the sea of years
[Riff 1b]
With no provision but an open face
'Long the straits of fear
[Riff 1b]
Wha-oh, wha-oh
[Riff 1d]
Whaoh-oh, oh

[Riff 2b]
[Riff 2b]
[Riff 1e]
Ohhhh
[Riff 2b]
[Riff 2b]

Well, when I want, when I'm on my way, yeah
When I see, when I see the way, you stay, yeah

Ooh, yeah-yeah, ooh, yeah-yeah, well I'm down, yes
Ooh, yeah-yeah, ooh, yeah-yeah, well I'm down, so down
Ooh, my baby, oooh, my baby, let me take you there

Oh, oh, come on, come on
Oh, let me take you there
Let me take you there
Whoo-ooh, yeah-yeah, whoo-ooh, yeah-yeah, let me take you

Copyrights
Author: ?
Composer: ?
Publisher: ?
More details
Language: English

Reactions

CommonCrawl [Bot]

Follow Muzikum