Led Zeppelin
Black Dog Ver 4 (Guitar tab)

e---------------------------------------------------------------------
B--------------------------5-------------------------------------------
G-------------5--------7-------5h7p5----------5------------------------------
D---5-6-7--------7--------------------7---7------7--5--7-7------------------
A--7------7------------------------------------------------5--7---5--7----
E---------------------------------------------------------------8----5--
Chorus Riff
e-----------------------------------------------3------2---------------
B-----------------------------------------------0------3---------------
G--2-----2--------2------5---2----2-------2-----0------2----------------------
D--2-----2--------2------5---2----2-------2-----0------0----------------------
A--0-----0--------0------3---0----0-------0-----x----------------------------
E-----3-------3-------3----------------3--------3-------------------------


Well here it is. The correct way to play "Black Dog". If you have the solo please send it
Hoss670@aol.com. And if you have and questions just email me. Thank ya for

Copyrights
Author: ?
Composer: ?
Publisher: ?
More details
Language: English

Reactions

CommonCrawl [Bot]

Follow Muzikum