Led Zeppelin
Ten Years Gone Ver 2 (Guitar tab)

Led Zeppelin

Album:Physical Graffiti
Song: Ten Years Gone

These are the solo bits at the end of the song.

this is my first tab so it`s probably not correct,
but it`s close enough to figure out the correct way to play it.
Thanks to Page, Plant, Bonham and Jones for a beutiful song.

It Starts about 04:21.

12b13: 12 bend up to 13.
10~: tremolo ore hold note.
rb17: release bend back to 17.

guitar 1
--------------------------------------- -----------------------------------
----10---10-10-12b13-12-10-12-10~------ -----------------------------------
--------------------------------------- -----11---16b17-16--14-16-14~------
--------------------------------------- -----------------------------------
--------------------------------------- -----------------------------------
--------------------------------------- -----------------------------------

guitar 2 at the same time as g 1:

--------------------------------------- -----------------------------------
--------------------------------------- ---10--15b16-15-13-15-13~----------
--------------------------------------- -----------------------------------
--------------------------------------- -----------------------------------
--------------------------------------- -----------------------------------
--------------------------------------- -----------------------------------

guitar 1

--------------------------------------- -----------------------------------
-----------10--12b13--12--10-12-10~---- -----------------------------------
-----9--11----------------------------- -------11---16b17-16--14-16-14~----
--------------------------------------- -----------------------------------
--------------------------------------- -----------------------------------
--------------------------------------- -----------------------------------

guitar 2 at the same time as g 1:

--------------------------------------- -----------------------------------
--------------------------------------- ---10--15b16-15-13-15-13~----------
--------------------------------------- -----------------------------------
--------------------------------------- -----------------------------------
--------------------------------------- -----------------------------------
--------------------------------------- -----------------------------------

repeat this over the two other guitars when the song fades out.

-----17-17--------------17-17------17-17--------17-17----------------------
-----------17b19rb17~---------17b19-------17b19--------17b19rb17~------------
---------------------------------------------------------------------------
---------------------------------------------------------------------------
---------------------------------------------------------------------------
---------------------------------------------------------------------------



Tabbed by Fredric Antaya.

Copyrights
Author: ?
Composer: ?
Publisher: ?
More details
Language: English

Reactions

CommonCrawl [Bot]

Follow Muzikum