Led Zeppelin
Hots On For Nowhere (Bass tab)

Hots On For Nowhere - Led Zeppelin

G|----------------|----------------|----------------|----------------|
D|----------------|------2---------|------2---------|------2---------|
A|----------------|5-4424----------|5-4424----------|5-4424-5-7---242|
E|----------------|-------0--------|-------0--------|-----------34---|
I was

G|----------------|----------------|----------------|----------------|
D|------2---------|------2---------|------2---------|------2---------|Repeat
A|5-4424----------|5-4424-5-7---242|5-4424----------|5-4424-5-7---242| twice
E|-------0--------|-----------34---|-------0--------|-----------34---|
burned in the.....

G|----------------|----------------|----------------|
D|---245---245---2|42-----24----245|---245---24-----|
A|-34----34----34-|--34034--0-34---|-34----34--03403|
E|----------------|----------------|----------------|

G|----------------|----------------|----------------|----------------|
D|------2---------|------2---------|------2---------|------2---------|Repeat
A|5-4424----------|5-4424-5-7---242|5-4424----------|5-4424-5-7---242| twice
E|-------0--------|-----------34---|-------0--------|-----------34---|
Corner of Bleeker.....

G|----------------|----------------|----------------|
D|---245---245---2|42-----24----245|---245---24-----|
A|-34----34----34-|--34034--0-34---|-34----34--03403|
E|----------------|----------------|----------------|

G|----------------|----------------|----------------|----------------|
D|------2---------|------2---------|------2---------|------2---------|Repeat
A|5-4424----------|5-4424-5-7---242|5-4424----------|5-4424-5-7---242| twice
E|-------0--------|-----------34---|-------0--------|-----------34---|

G|----------------|----------------|----------------|----------------|
D|----------------|----------------|----------------|----------------|
A|7------5--------|----0--00-2-4567|(7)----5--------|----0--00-2-4567|
E|---------------5|(5)-------------|---------------5|(5)-------------|

G|----------------|----------------|----------------|----------------|
D|----------------|-------45-452---|----------------|-------4554-----|
A|(7)----5--------|----0--------447|(7)----5--------|----0-------7-6-|
E|---------------5|(5)-------------|---------------5|(5)-------------|

G|----------------|----------------|----------------|----------------|
D|------2---------|------2---------|------2---------|------2---------|Repeat
A|5-4424----------|5-4424-5-7---242|5-4424----------|5-4424-5-7---242| twice
E|-------0--------|-----------34---|-------0--------|-----------34---|
(Guitar Solo)

G|----------------|----------------|----------------|
D|---245---245---2|42-----24----245|---245---24-----|
A|-34----34----34-|--34034--0-34---|-34----34--03403|
E|----------------|----------------|----------------|

G|----------------|----------------|----------------|----------------|
D|------2---------|------2---------|------2---------|------2---------|Repeat
A|5-4424----------|5-4424-5-7---242|5-4424----------|5-4424-5-7---242| twice
E|-------0--------|-----------34---|-------0--------|-----------34---|
Lost on the path to attainment.....

G|----------------|----------------|----------------|----------------|
D|----------------|----------------|----------------|----------------|Repeat
A|7------5--------|----0--00-2-4567|(7)----5--------|----0--00-2-4567| twice
E|---------------5|(5)-------------|---------------5|(5)-------------|

3/4 time 4/4 time 3/4 time 4/4 time
G|----------------|------------|----------------|------------|----------------|
D|----------------|------------|----------------|------------|----------------|
A|----------------|-----------0|(0)-------------|------------|0--------------7|
E|----------------|------------|----------------|------------|----------------|

G|----------------|----------------|----------------|----------------|
D|----------------|-------45-4-22--|----------------|---------2-42---|Repeat
A|(7)----5--------|--------------47|(7)----5--------|-------4-----447| twice
E|---------------5|(5)-------------|---------------5|(5)-------------|

4/4 time 3/4 time 4/4 time 3/4 time
G|----------------|------------|----------------|------------|
D|----------------|------------|----------------|------------|
A|----------------|-----------0|(0)-------------|------------|
E|----------------|------------|----------------|------------|

4/4 time
G|----------------|
D|----------------|
A|0---------------|
E|----------------|

Copyrights
Author: ?
Composer: ?
Publisher: ?
More details
Language: English

Reactions

CommonCrawl [Bot]

Follow Muzikum