Led Zeppelin
Heart Breaker Intro (Bass tab)

G|---------------------------------------------------------|
D|----0-1-2-------0-1-2------0-1-2------0-1-2--------------|
A|-0-3-------00003--------0-3------00003-------------------|
E|---------3------------3---------3----------3-------------|

G|---------------------------------------------------------|
D|---0-2-3-4-----0-2-3-4-----------------------------------|
A|-2---------2222------------------------------------------|
E|----------5-----------5----------------------------------|

Copyrights
Author: ?
Composer: ?
Publisher: ?

Reactions

CommonCrawl [Bot]

Follow Muzikum