Led Zeppelin
Carouselambra (Guitar chord)

Led Zeppelin - Carouselambra

From the CD 'In Through the Out Door'
Written by Jones/Page/Plant
Swan Song 16002 and/or Atlantic 92443-2

This file is mostly chords. The song is in C, the part I tabbed
out is in D, and the end is in G. Most of it is synth and/or keyboard, so
I have that here too. You can figure out which is keys and which is
guitar. Enjoy.

Jimmy Pena - jimmy@walrus.com


Progression:

G A A G A A G A A G A A B C#

Repeat this 8 times:

[x00231] [x02220]
Dm/A A

With verse: [x33211] [x30210]

F/C C
Sisters by the wayside bide ...

Dm/A A
Still stand to turn in ....

F/C C
In times of lightness no ....

Dm/A A
All was joy and hands were...

[xx0233] [xx0232]
Dsus4 D
Ah, ah, ah, ah.

Then 4 times in the same pattern:

[113331] [133211]
Bb/F F

4 times:
Dm/A A


F/C C
Still in their bliss ...

Dm/A A
Within the wall their dauting...

F/C C
Faceless legions stood in ...

Dm/A A
And everything is soon no ...

Dsus4 D
Ah, ah, ah, ah.

4 times:

Bb/F F

Then the keyboard does a little roll which kinda goes like this:

|: A~ F G :| [Play it four times]

F/C C
How keen the soaring hunter's eye ...
Dm/A A
And powerless the fabled sat, ...

F/C C
Who cares to dry the cheeks of ...

Dm/A A
Wha??


Dsus4 D
Ah, ah, ah, ah.

4 times:

Bb/F F


Then the keyboard does that little roll again:

|: A~ F G :| [Play it four times]


The keyboard does another thing but I'll list the chords here:

|: F G Em :| [Play it three times]

|: A~ F G :| [two times]

|: F G Em :| [Play it three times]

|: A~ F G :| [two times]

|: F G Em :| [Play it three times]


[This is in D]:

[Riff 1] - play it once initially

Em D A G C D
e:--7------5~-----5------5~------3------0------0------2~-------------|
B:----8------7------7------5-------3------1------1----3~-------------|
G:------9------7~-----7------6~------4------0---------2~-------------|
D:----------------------------------------------------0~-------------|
A:-------------------------------------------------------------------|
E:-------------------------------------------------------------------|

e:--7------5~-----5------5~------3------0------0---------------------|
B:----8------7------7------5-------3------1------1-------------------|
G:------9------7~-----7------6~------4------0------------------------|
D:-------------------------------------------------------------------|
A:-------------------------------------------------------------------|
E:-------------------------------------------------------------------|

[Back to the key of C]:

[Riff 2]:
A Cmaj7
e:--0~---------------0~----------------------------------------------|
B:--2~---------------0~----------------------------------------------|
G:--2~---------------0~----------------------------------------------|
D:--2~---------4-----2~----------------------------------------------|
A:--0~-------0---0---3~----------------------------------------------|
E:-------------------------------------------------------------------|

[Riff 2] x2

[Riff 2] with lyrics:

Where was your word, ...

[Riff 1] x1

[Riff 2] w/ lyrics:

Dull is the armour, ....

[Riff 1] x1

[Riff 2] w/ lyrics:

I heard the word, I couldn't ...

Keyboard bangs out an A chord, then it plays a G for four measures [final
key switch to G], then A again for four measures.

Play G:
Touched by the timely coming...
Play A:
release the grip, ...
Play D:
Held now within ...
Play A:
Take of the ...

Play D for four measures, then:

[x04442]
|: A A B/A~ :| [Play this four times]

Play G for four measures, then A for four measures.

Play G:
Held now within the knowing,....

Play D for four measures, then:

Play A:
Take of the fruit ...

Play D for four measures, then:

|: A A B/A~ :| [Play this three times]

Repeat until fadeout:
[x05553]
|: A A B/A~ C/A B/A :|

Copyrights
Author: ?
Composer: ?
Publisher: ?
More details
Language: English

Reactions

CommonCrawl [Bot]

Follow Muzikum