Led Zeppelin
Over The Hills (Guitar tab)

#
From: s892011@minyos.xx.rmit.OZ.AU (Mr.Scary)


OVER THE HILLS AND FAR AWAY - LED ZEPPELIN
==========================================

This tab only goes up to and including the first chorus.

strum in rhythm
v

----------------3-------------------------2-
----------------3-------------------------3-
--0^2^0-----0---0-----0^2^0---0-4^2^0-----2-
--------4^0-----0-----------4---------0---0-
----------------2---------------------------
----------------3---------------------------

play twice, then...


------------------3------------------------2---------------0-----0---0------
------------------3------------------------3---------------3--3--3--/5------
------------------0---0^2^0---0-4^2^0------2--0^2^0--------0--0--0---0------
------0---0-2-0---2---------4----------0---0--------4^0----2--0--3--/5------
--0-2---2---------2-------------------------------------3--3--2--1--/3------
------------------3---------------------------------------------------------

go back to start again, this time the 12-string kicks in. Third time around,
the vocals start.


----3-------------------------
----3-------------3-5-3-5-/7--
----0------0--2-4-------5-/7--
----0-------------------0--0--
----2-------------------------
----3-------------------------

"..maybe, more than enough..."


--------------0-----+----------------2--0--+--9----7------------------------
--------------3-----|----------------3--3--|--10---8------------------------
--0^2^0-------0--0--|----------------2--2--|--9----7------------------------
--------4^0---2--0--|---------0-2-0--0--0--|--0----0------------------------
------------3-3--2--|-----0-2--------------|--------------------------------
--------------------+-3-3------------------+--------------------------------

"you got... so much"| repeat x 3 | strum in time, repeat x 4


----------------------3----------------------2------------------------------
----------------------3----------------------3------------------------------
----------------------0----------------------2------------------------------
-----------0-2-0------0------------0-2-0-----0------------------------------
-------0-2-------2-0--2--------0-2-------2-0--------------------------------
--3--3----------------3---3--3----------------------------------------------

At the end they repeat this and fade it out to some very echo-ish stuff
(a simplified version of the verse, with the individual notes played up
an octave)

Copyrights
Author: ?
Composer: ?
Publisher: ?
More details
Language: English

Reactions

CommonCrawl [Bot]

Follow Muzikum