Led Zeppelin
Kashmir (Guitar tab)

From: ad336@rgfn.epcc.Edu (Michael D. Volk)

Kashmir
Led Zeppelin
Physical Graffiti

Tuning
D-1
A-2
G-3
D-4
A-5
D-6

I have tabbed all the riffs in the entire song, but you will have to listen to the album to see exactly how the riffs fit together. Enjoy.

Main Riff 1

D|----------------------------------------------------------------------------
A|----------------------------------------------------------------------------
G|--2---2---2------2---2---2------3---3---3------3---3---3------------------
D|--0---0---0------0---0---0------0---0---0------0---0---0------------------
A|--5---5---5------5---5---5------5---5---5------5---5---5------------------
D|----------------------------------------------------------------------------

D|----------------------------------------------------------------------------
A|----------------------------------------------------------------------------
G|--4---4---4------4---4---4------5---5---5------5---5---5------------------
D|--0---0---0------0---0---0------0---0---0------0---0---0------------------
A|--5---5---5------5---5---5------5---5---5------5---5---5------------------
D|----------------------------------------------------------------------------

D|----------------------------------------------------------------------------
A|----------------------------------------------------------------------------
G|--7---7---7------2---2---2------2---2---2----------------------------------
D|--0---0---0------0---0---0------0---0---0---repeat-------------------------
A|--5---5---5------5---5---5------5---5---5----------------------------------
D|----------------------------------------------------------------------------

Riff 2

D|--12---12---10---10----7----7----5----5----3----3-------------------------
A|---0----0----0----0----0----0----0----0----0----0--------------------------
G|--12---11---10----9----7----6----5----4----3---2--------------------------
D|---0----0----0----0----0----0----0----0----0----0----3-2-0----------------
A|----------------------------------------------------------------------------
D|----------------------------------------------------------------------------

D|--12---12---10---10----7----7----5----5----3----3-------------------------
A|---0----0----0----0----0----0----0----0----0---0---------------------------
G|--12---11---10----9----7----6----5----4----3---2--------------------------
D|---0----0----0----0----0----0----0----0----0----0----3-2-0----------------
A|----------------------------------------------------------------------------
D|----------------------------------------------------------------------------

When you go back to the Main Riff start here and then proceed as usual.
D|----------------------------------------------------------------------------
A|----------------------------------------------------------------------------
G|--3---3---3------3---3---3------4---4---4------4---4---4------------------
D|--0---0---0------0---0---0------0---0---0------0---0---0------------------
A|--5---5---5------5---5---5------5---5---5------5---5---5------------------
D|----------------------------------------------------------------------------

D|----------------------------------------------------------------------------
A|----------------------------------------------------------------------------
G|--5---5---5------5---5---5------7---7---7------2---2---2------------------
D|--0---0---0------0---0---0------0---0---0------0---0---0----etc.-----------
A|--5---5---5------5---5---5------5---5---5------5---5---5------------------
D|----------------------------------------------------------------------------

Interlude 1-After Riff 2

D|--12---12---10---10----7----7----5----5----3----3-------------------------
A|---0----0----0----0----0----0----0----0----0---0---------------------------
G|--12---11---10----9----7----6----5----4----3---2--------------------------
D|---0----0----0----0----0----0----0----0----0----0----3-2-0------0---------
A|-------------------------------------------------------------0-2------------
D|----------------------------------------------------------------------------

D|----------------------------------------------------------------------------
A|----------------------------------------------------------------------------
G|----------------------------------------------------------------------------
D|--2------2---2---11\-2-----------2------2---2---11\-2-----3-2-0-----0-----
A|--0------0---0---12\-0-----------0------0---0---12\-0-----------0-2-------
D|----------------------------------------------------------------------------

D|----------------------------------------------------------------------------
A|----------------------------------------------------------------------------
G|----------------------------------------------------------------------------
D|--2------2---2---11\-2-----------2------2---2---11\-2----3-2-0-----0------
A|--0------0---0---12\-0-----------0------0---0---12\-0-----------0-2-------
D|----------------------------------------------------------------------------

Repeat
Back to Riff 2

Interlude 2-After Riff 2
Interlude 2 is two chords that are alternated in this section of the song.

D|--12---12---10---10----7----7----5----5----3----3-------------------------
A|---0----0----0----0----0----0----0----0----0---0---------------------------
G|--12---11---10----9----7----6----5----4----3---2--------------------------
D|---0----0----0----0----0----0----0----0----0----0----3-2-0----------------
A|----------------------------------------------------------------------------
D|----------------------------------------------------------------------------

D|--5---------------------------7---------------------------------------------
A|--5---------------------------7---------------------------------------------
G|--7---------------------------9---------------------------------------------
D|--5---------------------------7---------------------------------------------
A|--5---------------------------7---------------------------------------------
D|--5---------------------------7---------------------------------------------

The rest of the song alternates between the Main Riff and Riff 2.
End on Interlude 2.

If you happen to be playing along with the Page and Plant: No Quarter album, here is the riff that comes after the violin solo.

D|----------------------------------------------------------------------------
A|----------------------------------------------------------------------------
G|----------------------------------------------------------------------------
D|----------------------------------------------------------------------------
A|--12-11-12-14-12-11-12--9------------------------------------------------
D|---0--0--0--0--0--0---0--0------------------------------------------------

That's the entire song. Now I would like to make some requests. First, any Led Zeppelin fans who have tabs to their songs should post them or e-mail them to me at ad336@rgfn.epcc.edu. This would be greatly appreciated. I would really like to have 


fjds'

--
ex

edit

Copyrights
Author: ?
Composer: ?
Publisher: ?
More details
Language: English

Reactions

CommonCrawl [Bot]

Follow Muzikum