Dope

Dope
F Ck Tha Police (Guitar tab)

Guitarist:Tripp Eisen
Drop C tuning:C G C F A D ()=harmonics

C|-0-0-6-0-5-0-3-3-5-0-0-6-0-5-0--------------------|
G|-0-0-6-0-5-0-3-3-5-0-0-6-0-5-0--------------------|
C|-0-0-6-0-5-0-3-3-5-0-0-6-0-5-0-(5)(5)(5)(5)(5)(5)-|

C|-0-0-6-0-5-0-3-3-5-0-0-6-0-5-0-3-3-3|
G|-0-0-6-0-5-0-3-3-5-0-0-6-0-5-0-3-3-3|
C|-0-0-6-0-5-0-3-3-5-0-0-6-0-5-0-3-3-3|

C|-0-0-3-0-0-0-3-0-3| |-0-0-3-0-0-0-5-3-6|
G|-0-0-3-0-0-0-3-0-3|3x|-0-0-3-0-0-0-5-3-6|
C|-0-0-3-0-0-0-3-0-3| |-0-0-3-0-0-0-5-3-6|

F|-7-7-x-xx-xx-8x8|
C|-7-7-x-xx-xx-8x8|
G|-5-5-x-xx-xx-6x6|

C|-0-0-3-6-0-6-0-0-3-3|
G|-0-0-3-6-0-6-0-0-3-3|
C|-0-0-3-6-0-6-0-0-3-3|

OptimusPrime

Submitted by OptimusPrime at Thu 14 Aug, 2003 4:40 pm

Author: ?
Composer: ?
Publisher: ?

Reactions

CommonCrawl [Bot]

Follow Muzikum