Blind Melon

Blind Melon
Walk (Bass tab)

a PAPER SCRATCHINGS tab ( http://members.tripod.com/~blindmelon OR
http://www.geocities.com/SunsetStrip/7899 )
----------------------------------------------------------------------------

Blind Melon
Walk Bass TAB

By me shannonh@geocities.com


I picked up this bass tab really quickly, and although it is fairly simple,
it sounds great a long with the rest of the song.

Main Riff:

G---------------------------------
D---------------------------------
A---0---3---5-------5-5------3-3--
E---------------3-3------1-1------


This repeats throughout the whole song and in some parts stops on D or G
After some breaks the bass leads up by playing:

G---------------
D---------------
A---------------
E--1--1---3--3--


In the bridge section the bass plays as follows:
s s s s s s
G-------------------------------------------------------
D-------------------------------------------------------
A---7----3-------------7----3-----------7---3-----------
E-------------3----1------------3---1-----------3----1--

(s)lide

------------------------------------------------------------------------

This tab is MINE!! Don't steal it without asking me, okay?

OptimusPrime

Submitted by OptimusPrime at Thu 14 Aug, 2003 4:14 pm

Author: ?
Composer: ?
Publisher: ?
Language: English

Reactions

CommonCrawl [Bot]

Follow Muzikum