Blind Melon

Blind Melon
Toes Across The Floor (Guitar tab)

a PAPER SCRATCHINGS tab ( http://members.tripod.com/~blindmelon OR
http://www.geocities.com/SunsetStrip/7899 )
----------------------------------------------------------------------------

Toes Across the Floor
*********************

Sent in by Gus


Verse:
Doesn't Anybody Feel That all these killers shoud be killed...
e-0-0-0-0-0-0-0------0
b-6-6-6-6-6-6\8h10p8-6 -DminVerse riff
g-7-7-7-7-7-7\9------7
d-0-0-0-0-0-0-0------0
then it goes:
Bb
And all these healers should be healed
C Dmin Verse riff
So all these beggers van be filled

Chorus:
G F D
To lie Beside this dog of mine-----
G F D
And let that perverted thought run through my mind----

Oo, my mind then play this riff:
e-------------------------------I------------------------------
b-10-10-10-10-10-10-10\13-10\13-I-10-10-10-10-10-10-10-10\13-10\13---
g-------------------------------I----------------------------------12
d-7--7--7--7--7--7--7-\10-7-\10-I-7--7--7--7--7--7--7--7-\10-7-\10---
a-------------------------------I------------------------------------
e-------------------------------I------------------------------------
the I's are supposed to be measure lines
Reapeate this and say: Ah oo ah, ah oo ah.

then there's a bridge that goes:
guitar 1:
e-----------I-----------I
b-----------I-----------I
g-2h4--2~---I-----------I
d-----------I-2h4--2~---I
a-----------I-----------I
e-----------I-----------I

guitar 2:
e-----------I--------10-I
b-7~-7-8-10-I-7~-7-8-7--I
g-7~-7-7-7--I-7~-7-7-7--I
d-7~-7-7-7--I-7~-7-7-7--I
a-----------I-----------I
e-----------I-----------I
then guitar 2 goes:
e----------------
b-7-X-7-7\8-10-7~
g-7-X-7-7\8-8--7~
D-7-X-7-7\8-8--7~
A----------------
E----------------
And end on D

------------------------------------------------------------------------

This tab is MINE!! Don't steal it without asking me, okay?

OptimusPrime

Submitted by OptimusPrime at Thu 14 Aug, 2003 4:14 pm

Author: ?
Composer: ?
Publisher: ?
Language: English

Reactions

CommonCrawl [Bot]

Follow Muzikum