Blind Melon

Blind Melon
No Rain Ver 3 (Guitar tab)

Author/Artist: blind melon
Title: no rain
Transcribed by: Saverain
Email: saverain@hotmail.com

This is what it sounds like to me and if you don't
like it E-mail me
you'll have to find the lyrics somewhere else sorry.
I are not to good words
v strum down
^ strum up
b bend r release bend h hammer on
m mute / slide up \ slide down
s strum down slowly T thumb p.m. palm mute
n=not shure play along with cd play slow at first to get right

-|-----------------|---------------------------------|------------------------
-|-----10----------|-10-9-10-------------------------|10-9-10----14h15-14-----
-|-14-----14/16-9--|---------11----------------------|--------11---------14-9-
-|-----------------|-------------14--12--12-14-12-14-|------------------------
-|-----------------|---------------------------------|------------------------
-|-----------------|---------------------------------|------------------------
v ^ v ^ v ^ v ^ m ^ m ^ ^ v ^ v

-|-----------------|---------4---2--2--2--2-2-2-|---------4---2--2--2--2-2-2--
-|--------------5--|----5--5-5-x-3--3--3--3-5-3-|----5--5-5-x-3--3--3--3-3-3--
-|--------------4--|----4--4-4-x-2--2--2--2-2-2-|----4--4-4-x-2--2--2--2-2-2--
-|--------------6--|-------------0--0--0--0-0-0-|-------------0--0--0--0-0-0--
-|--------------7--|-7--------------------------|-7---------------------------
-|--------------0--|----------------------------|-----------------------------
guitar 2 intro s n v v ^ v ^m ^m ^ ^ v ^ n verse >

--|-----------------------------2--2-2-----------------------------0-0--------
--|----5--5-5-5-5-5-5-5-5-5-----3--3-3-x-3--3--5--5-5-----5--5-5-x-5-5--------
--|----4--4-4-4-4-4-4-4-4-4--x--2--2-2-x-2--2--2--2-2-----6--6-6-x-6-6----4---
--|----6--6-6-6-----6-6-6-6--0--0--0-0-x-0--0--0--0-0-----7--7-7-x-7-7-5--5---
--|-7--7------------------7--0--0--------------0--0-0--7--7--7-7-x-7-7-5--5---
--|----------------------------------------------------5-----5-5-x-----3--3---
v v v ^ v ^ ^ ^ v ^ vm v v v ^ v ^m ^m ^ ^ vmTv v v ^ v ^ ^ ^m ^

--------------------------|-0--------------------|-4--4--4-4-x-2--2--2--2---|-
-----0-0--3--3---5--5-5-x-|-0--------------------|-5--5--5-5-x-3--3--3--3-5-|-
-4-x-x-1--1--1-x-4--4-4-x-|-1--------------------|-4--4--4-4-x-2--2--2--2-2-|-
-5-x-x-2--0--0-x-6--6-6-x-|-2--------------------|-6--6--6-6-x-0--0--0--0-0-|-
-5-x-x-2--2--2-x-7--7-7-x-|-2--------------------|-7--7--------0--0--0--0-0-|-
-3-x-0-0------------------|-0--------------------|--------------------------|-
v ^ v v v ^ v ^ ^ v ^ play after2ndtime choru>>v v v ^ v ^m ^m ^ ^ vm

-----|---------|-0----------------------------------|-------------------------
-----|---------|-0-10-10-10/12-5-10-10-10/12-5------|-10--10-10/12----10-9-10-
-----|---------|-1-------------4-------------4------|--------------9----------
-----|---------|-2-------------6-------------6------|-------------------------
-----|---------|-2-------------7-------------7------|-------------------------
-----|---------|-0-------------0-------------0------|-------------------------
verse escape G2 escape G2 esca a ape solo strum E AND D

----------------------------------------------------9-9-9--9-9-9--9-9-9--9-9--
-12------------------12-14--15--14--15--14--15--14-10-9-9-12-9-9-10-9-9-12-9--
----13--14--13-14-13----------------------------------------------------------
------------------------------------------------------------------------------
------------------------------------------------------------------------------
------------------------------------------------------------------------------
m

-9--9-9-9--9-9-9--9-9-9--9-9-9-10-9-9-9-9-9-12-9-9-9-9-9-14-9-9-9-9-9---------
-9-10-9-9-12-9-9-10-9-9-12-9-9-9--9-9-9-9-9--9-9-9-9-9-9--9-9-9-9-9-9-9/-9\7--
----------------------------------------------------------------------9/------
------------------------------------------------------------------------------
------------------------------------------------------------------------------
------------------------------------------------------------------------------
v ^

------------------------------------9-----9----10--9----12--9-9---------------
-7\-5-5\3-3\2-2/3-3/5-5/7-7/9-9h10----10----10-------10-------10-9b10r9-------
-----------------------------------------------------------------9b10r9--9----
------------------------------------------------------------------------12p9--
------------------------------------------------------------------------------
------------------------------------------------------------------------------
v continue ^ v ^ v ^ ^ v ^ ^ v v v v

---------------------------7----------------------------------------|-0-------
---7b9r7------9b11-9-----7---10p7-----------------------------------|-5-------
-x-7b9r7--7-7-9b11-9--9b----------9-7-9p7---7---------------7-9p7---|-4-------
-x-9b10r9-9-9-----------------------------9---9-7-9p7---9-9-------9-|-6-------
------------------------------------------------------9-------------|-7-------
--------------------------------------------------------------------|-0-------
v ^ ^ v v v s

------0-----------0-----------------0--------------0-----------|--------------
----7-5---------5-5-3-3-------------5--------------5-----------|--------------
----7-6-----6-6-6-6-4-4-x-----------4--------------4-----------|--------------
----7-7-----7-7-7-7-5-5-x-----------6--------------6-----------|--------------
----5-7-----7-7-7-7-5-5-x-2---------7--------------7-----------|--------------
------5-----5-5-----------0---------0--------------0-----------|--------------
s s ^ vm^ vm^ v intro s intro s intro chorus w/intro

-------------|----------------------------------------------------------------
-------------|-9-10-9---------------------------------------------------------
-------------|--------11--9--7--7-9-7-10b11r10-9-12b14r12p10-12-10b12r10p9-10-
-------------|----------------------------------------------------------------
-------------|----------------------------------------------------------------
-------------|----------------------------------------------------------------
part E and D

---------------------------------------------------------12-9--10-9--10-9--10-
----------------10b11r10p9-10-12--10-9--10--9-9-12--10-9-------------10-9--10-
-12b14r12p10-12---------------------------------------------------------------
------------------------------------------------------------------------------
------------------------------------------------------------------------------
------------------------------------------------------------------------------


-9---9-9-9--9-9-9--9-9-9--9-9-9--9-9-9--9-9-9--9-9-9--9-9-9-10-9-9-9-9-9-12-9-
-9--10-9-9-12-9-9-10-9-9-12-9-9-10-9-9-12-9-9-10-9-9-12-9-9--9-9-9-9-9-9--9-9-
------------------------------------------------------------------------------
------------------------------------------------------------------------------
------------------------------------------------------------------------------
------------------------------------------------------------------------------


-9-9-9-9-14-9-9-9-9-9-------7-----------------------------------------------|-
-9-9-9-9--9-9-9-9-9-9-9\--7---10p7---7--------------------------------------|-
----------------------9\-----------9---9-7-9p7---7---------------7-9p7---9--|-
-----------------------------------------------9---9-7-9p7---9-9-------9----|-
-----------------------------------------------------------9----------------|-
----------------------------------------------------------------------------|-


--|--------2---|--------------------------------------------------------------
--|------5-3---|--------------------------------------------------------------
--|-4--4-4-2---|--------------------------------------------------------------
--|-6--6-6-0---|--------------------------------------------------------------
--|-7--7-------|--------------------------------------------------------------
--|------------|--------------------------------------------------------------
v v ^ ^ I'll have it ma a a ade

OptimusPrime

Submitted by OptimusPrime at Sun 01 Dec, 2002 8:39 am

Author: ?
Composer: ?
Publisher: ?
Language: English

Reactions

CommonCrawl [Bot]

Follow Muzikum