Blind Melon

Blind Melon
Change Solo (Guitar tab)

Change
Blind Melon
Solo

Tab from book "Blind Melon"



|-----5~~~~~~~~~----------------|------------------------------------------|
|-------------------------------|------------------------------------------|
|--------------------5--7^(7)^--|---7^(7)p5--7--5~~~~~~--------------------|
|-----------------7-------------|----------------------------5--7-7^----7^-|
|-------------------------------|------------------------s7----------------|
|-------------------------------|------------------------------------------|

|------------------------------------------|-------------------------------|
|-------------------------8---8---8--10----|-----------8-10-8--7-8-7s5-----|
|------------5---5--5-7^---7^--s9---9------|-------------------------------|
|--7^(7)p5-7---7---------------------------|-------------------------------|
|------------------------------------------|-------------------------------|
|------------------------------------------|-------------------------------|

|------------------------------------------|----------------5----5----5----|
|------------------------------------------|-------------------------------|
|---7^(7)p5-7-5--4-5-4s2-4^(4)p2-2-----2-2~|~~~~~~~~~~~~-s5---5----5----5--|
|------------------------------------4-----|-------------------------------|
|------------------------------------------|-------------------------------|
|------------------------------------------|-------------------------------|

|---7--7--7--7-------12--12------17---17---|--------------20-20-20p17---17-|
|------------------------------------------|--------------------------20---|
|s7--7--7--7-----s12---12----s17---17------|-------------------------------|
|------------------------------------------|-------------------------------|
|------------------------------------------|-------------------------------|
|------------------------------------------|-------------------------------|

|-------17---------------17----------------|------------------------------------------------------|
|--20^~~--20----------17---20-17----17-----|---17---------------20----------20--------------------|
|------------17-19^--------------19-----17-|17h19-17----17-17^-----17-17^------19-19^(19)p17--17--|
|------------------------------------------|---------19-------------------------------------19----|
|------------------------------------------|------------------------------------------------------|
|------------------------------------------|------------------------------------------------------|

|---------------------------------------------------------------|---------------------------------|
|---------------------------------------------------------------|---------------------------------|
|----19^(19)p17--19-17-16-17--16s14-16^(16)p14-16--14-----14--14~~~~~~~~~~~~~~~~~~~~------14--16--|
|------------------------------------------------------16-------|----------------------16---------|
|---------------------------------------------------------------|---------------------------------|
|---------------------------------------------------------------|---------------------------------|

|------------------------------------------|--------------------------------|
|------------------------------------------|--------------------------------|
|--16~~~~~~~~~~~~~~~~~~~~~~----16^(16)p14--|-16--14~~~~~~-------14-16-14-14-|
|------------------------------------------|-----------------16-------------|
|------------------------------------------|--------------------------------|
|------------------------------------------|--------------------------------|


by: psylliboy@hotmail.com

"Life's all ups and downs, just don't keep sitting at the bottom"

OptimusPrime

Submitted by OptimusPrime at Sun 01 Dec, 2002 8:39 am

Author: ?
Composer: ?
Publisher: ?
Language: English

Reactions

CommonCrawl [Bot]

Follow Muzikum