Puddle Of Mudd

Puddle Of Mudd
S (Guitar tab)

INTRO,VERSE, PLAYED BY GUITAR 1
E-------------------------------------------------------------------------
B-------------------------------------------------------------------------
G---2--0--3--3--0-----4--0---5-5--5--0------------------------------------
D-3----0--3-----0--5-----0---5-5-----0------------------------------------
A-3----0--1--------5-----0---3-3------------------------------------------
E-1----------------3------------------------------------------------------

2ND GUITAR PLAYS ( PLAY 4X)
E----------------------------------------------------------------------------
B----------------------------------------------------------------------------
G----5H7-(PULL OFF 7 SO THE 5 RINGS)----(ON THE LAST ONE PLAY)--5H7P-7--5----
D----------------------------------------------------------------------7--7-5
A----------------------------------------------------------------------------
E----------------------------------------------------------------------------

WHEN HE SAY SHE F*** HATES THE FIRST TIME BOTH GUITARS ARE PLAYING THE INRTO
E-------------------------------------------------------------------------
B-------------------------------------------------------------------------
G---2--0--3--3--0-----4--0---5-5--5--0------------------------------------
D-3----0--3-----0--5-----0---5-5-----0------------------------------------
A-3----0--1--------5-----0---3-3------------------------------------------
E-1----------------3------------------------------------------------------


WHEN HE SAYS "SHE WAS QUEEN FOR ABOUT AN HOUR" THE 2ND GUITAR PLAYS THIS AGAIN
E----------------------------------------------------------------------------
B----------------------------------------------------------------------------
G----5H7P--(4X)-(ON THE LAST ONE PLAY)--5H7P-7--5-------------------------------
D----------------------------------------------7--7-5---------------------------
A----------------------------------------------------------------------------
E----------------------------------------------------------------------------

THE 1 GUITAR KEEPS PLAYIN THE INRO 4X
E-------------------------------------------------------------------------
B-------------------------------------------------------------------------
G---2--0--3--3--0-----4--0---5-5--5--0------------------------------------
D-3----0--3-----0--5-----0---5-5-----0------------------------------------
A-3----0--1--------5-----0---3-3------------------------------------------
E-1----------------3------------------------------------------------------

AND THERE IS A 3 GUITAR WHICH PLAYS THIS PALM MUTED 4X
E-------------------------------------
G-------------------------------------
B---------3333----------5555----------
D-3333----3333----555---5555----------
A-3333----1111----555---3333----------
E-1111------------333-----------------

FOR THE CHOROUS PLAY 8X
E---------------------------
B---------------------------
G-------3333------5555------
D--3333-3333--555-5555------
A--3333-1111--555-3333------
E--1111-------333-----------

( FOR THE FIRST PART OF THE CHOROUS THE 2 GUITAR PLAYS) 3X OUT OF THE 8
E----------------------------------------------------------------------------
B----------------------------------------------------------------------------
G----5H7P--------------------------------------------------------------------
D----------------------------------------------------------------------------
A----------------------------------------------------------------------------
E----------------------------------------------------------------------------

DURING THE CHOROUS GUITAR 1 COMES IN WITH A SOLO WHILE GUIAR 2 CONTINUES CHOROUS PLAY 4X
E----------------------------
B----------------------------
G--------9999-----9----11---11
D---9999-------11---11----9--
A----------------------------
E----------------------------

THEN BOTH GUITARS FADE OUT, GUITAR 1 PICKS UP WITH THE INRO AFTER THE BASS AND DRUMS PLAY ONCE.( PLAY 2X)
E-------------------------------------------------------------------------
B-------------------------------------------------------------------------
G---2--0--3--3--0-----4--0---5--5--5--0------------------------------------
D-3----0--3-----0--5-----0---5--5-----0------------------------------------
A-3----0--1--------5-----0---3--3------------------------------------------
E-1----------------3------------------------------------------------------

GUITAR 2 PLAYS THIS 2X
E----------------------------------------------------------------------------
B----------------------------------------------------------------------------
G----5H7P----(ON THE LAST ONE PLAY)--5H7P-7--5-------------------------------
D-------------------------------------------7--7-5---------------------------
A----------------------------------------------------------------------------
E----------------------------------------------------------------------------

THEN THE CHOROUS PICKS UP 4X
E----------------------
B----------------------
G-------3333-------5555
D-3333--3333--555--5555
A-3333--1111--555--3333
E-1111--------333------

THEN GUITAR 1 PLAYS THE SOLO AGAIN 4X WHILE GUITAR 2 CONTINUES PLAYING THE CHOROUS
E----------------------------
B----------------------------
G--------9999-----9----11---11
D---9999-------11---11----9--
A----------------------------
E----------------------------

THEN TO END THIS SONG GUITAR 1 AND GUITAR 2 FADE OUT WHILE GUITAR 3 PLAYS THIS WITH LITE DISTORTION
X8

E----------------------
B----------------------
G-------3333-------5555
D-3333--3333--555--5555
A-3333--1111--555--3333
E-1111--------333------

THIS IS IT HAVE FUN RATING MY TAB A ZERO
TABBED BY COREY THE THIRD

OptimusPrime

Submitted by OptimusPrime at Thu 14 Aug, 2003 6:05 pm

Author: ?
Composer: ?
Publisher: ?
Language: English

Reactions

CommonCrawl [Bot]

Follow Muzikum