Yes
Gates Of Delirium (Bass tab)

From: "Mike Briggs"
Subject: y/yes/gates_of_delirium.btab
Date: Sat, 3 Aug 2002 15:10:04 +0100

Gates of Delirium - Before the War
Yes

Part 1 of 3
Transcribed by Mike Briggs


x12HarHarm. x3 HarHarm.
G------9--7--||--------|-----9--7--|------------------------------
D------9--7--||--------|-----9--7--|------------------------------
A------9--7--||--7--5--|-----9--7--|--7--5--------7-----5---------
E------9--7--||--------|-----9--7--|------------------------------


Harm. x8 HarHarm.
G--------------||--7--------9--7--|--------||---------------------
D--------------||--7--------9--7--|--------||---------------------
A---7--5--2/5--||--7--------9--7--|--7--5--||--7-----5-----7------
E--------------||--7--------9--7--|--------||---------------------



G------------|-----------------------|--------------------||------
D------------|-----------------------|--------------------||------
A---5-----5--|--7--5--7--5-----5-----|--7-----5-----7-----||------
E------7-----|--------------7--------|--------------------||------



G-----------------------------------------------------------------
D-----------------------------------------------------------------
A-----------------------------------------------------------------
E---0-----0-----0--0-----0-----0-----0--0-----0--0-----0--0-------



G-----------------------------------------------------------------
D-----------------------------------------------------------------
A-----------------------------------------------------------------
E---0-----0--0--0-----0-----0--0-----0-----0--0--0-----0-----0----



G---------------|--------------------|--------|-------------------
D---------------|--------------------|-----5--|-----5-----5-------
A---------------|--------------2--5--|--7-----|--7-----7----------
E---0-----0--3--|--0--3--0--3--------|--------|--------------7----



G------|-------------|-----------|--------------------------|-----
D------|-------------|-----------|--------------------------|-----
A---5--|--5h7-----5--|-----------|--------5-----7-----9-----|-----
E------|-------------|-----5-----|--0--5-----7-----9--------|-----



G---------------|--------------------------|----------------------
D---------------|--------------------------|--7-----9/------12----
A---------------|--------5-----7-----9-----|----------------------
E---5-----7-----|--0--5-----7-----9--------|----------------------


2:14
G---|-------------------------------------------------|-----------
D---|------------------------------12/---14/---17-----|-----------
A---|-----10------10\7/12\9/14\10---------------------|-----------
E---|---------10--------------------------------------|-----------


"Stand and fight......"
G---------------------------------------------------|-------------
D---------------------------------------------------|-------------
A------------------------------------------2--3-----|--5----------
E---------------------------------0--2--3-----------|--------5----



G---------------------------|-------------------------------------
D---------------------------|-------------------------------------
A------5--5-----------5-----|--5-----------5--5-----------5-------
E---7-----------5--7--------|--------5--7-----------5--7----------



G---|---------------------------------|---------------------------
D---|---------------------------------|---------------------------
A---|--5-----------5--5-----12--9--5--|--5-----------5--5/17------
E---|--------5--7---------------------|--------5--7---------------


2:31
G---------------------|----------------------------|--------------
D---------------------|------------------------10--|--10h12-------
A------15-----14--12--|-----------2--3--7--10------|--------------
E---------------------|--0--2--3-------------------|--------------



G---------------------------------------------|-------------------
D---12--10h12-----12--12--10------------------|--12-----10h12-----
A-----------------------------12--10----------|-------------------
E-------------------------------------12--10--|-------------------



G-------------------------------------|---------------------------
D------12--12--10---------------------|-----12-----10h12----------
A------------------12--10-------------|---------------------------
E--------------------------12--10-----|---------------------------



G-----------------------------------------------------------------
D---12/16-----12------------12--12------12---------12-------------
A-----------------------------------------------------------------
E--------------------10-------------10---------10---------10------



G---|-------------------------------------------------------------
D---|-----------------------------------------7--9--10------------
A---|--8-----------------3--------8-------------------------------
E---|--------------5--7-------------------------------------------



G----------------14--16--17-----17--16--17--16--14----------------
D---15----------------------------------------------17------------
A-----------------------------------------------------------------
E-----------------------------------------------------------------


3:00 ish
G---------------------------------------------------|-------------
D---------------------------------5--4--2-----------|-------------
A------------------0--3--0-----0--------------------|--------0----
E---------------3-----------------------------------|--2--3-------



G--------------------------------|--------------------------------
D---------------5--4--2--0--2h4--|-----------------------5--4-----
A---3--0-----0-------------------|--------0--3--0-----0-----------
E--------------------------------|--2--3--------------------------



G------------|----------------------------------------------------
D---2--------|-----------------------5--4--2--------2--0--2h4-----
A------------|--------0--3--0-----0-------------------------------
E------------|--2--3----------------------------------------------



G------|--------------------------------------|-------------------
D------|-----------------------5--4--2--------|-------------------
A------|--------0--3--0-----0-----------------|-----------0--3----
E------|--2--3--------------------------------|--0--2--3----------



G--------------------------------------------|--------------------
D------------5--4--2--------2--0--2h4--------|--------------------
A---0-----0----------------------------------|--------0--3--0-----
E--------------------------------------------|--2--3--------------


3:18
G-----------------------------------------------------------------
D---------5--4--2--------2--0--2h4-----5--5--5--7--7--7--9--9-----
A------0----------------------------------------------------------
E-----------------------------------------------------------------



G------------------------------------14/16--------16--16--14------
D---9--10--10--10--11--11--12-------------------------------------
A-----------------------------------------------------------------
E-----------------------------------------------------------------



G-----------------------------------------------------------------
D---16-----15--14--12-----10--10--10-----5--5--5--4--4-----2------
A-----------------------------------------------------------------
E-----------------------------------------------------------------



G---------------|--14/16-----19--19--19--16--16--16-----14--14----
D------0--------|-------------------------------------------------
A---------------|-------------------------------------------------
E---------------|-------------------------------------------------



G-----------------------------------------------------------------
D------------------------------------/----------------------------
A------0--0-----0--0-----10--8-----10-12--10-----12-----10--10----
E-----------------------------------------------------------------


3:40
G------------|--9/12-----11--9------------------------------------
D------0--0--|---------------------12-----10--9-------------------
A------------|-----------------------------------11--7--5--3------
E------------|----------------------------------------------------


5 times (ad lib bits)
G------------|--------------------------------|-------------------
D------------|--------------------------------|-------------------
A------------|--5-----------------0--0--2--3--|--5-----8-----0----
E---3--0--3--|--------1--3-----3--------------|-------------------



G-----------------------------14--16--17-----17--16--14------|----
D------------7-----10--15--------------------------------17--|----
A---3-----8--------------------------------------------------|----
E------------------------------------------------------------|----



G------------------------------------------|----------------------
D------------------------5--4--2-----------|----------------------
A---------0--3--0-----0--------------------|--------0--3--0-------
E------3-----------------------------------|--2--3----------------



G-----------------------|-----------------------------------------
D------5--4--2--0--2h4--|-----------------------5--4--2-----------
A---0-------------------|--------0--3--0-----0--------------------
E-----------------------|--2--3-----------------------------------



G---|----------------------------------------------------|--------
D---|-----------------------5--4--2--------2--0--2h4-----|--------
A---|--------0--3--0-----0-------------------------------|--------
E---|--2--3----------------------------------------------|--2-----



G------------------------------------|----------------------------
D---------------------5--4--2--------|----------------------------
A------0--3--0-----0-----------------|-----------0--3--0-----0----
E---3--------------------------------|--0--2--3-------------------



G-----------------------------------|-----------------------------
D---5--4--2--------2--0--2h4--------|-----------------------5-----
A-----------------------------------|--------0--3--0-----0--------
E-----------------------------------|--2--3-----------------------



G--------------------------|--------------------------------------
D---4--2--------2--0--2h4--|--5--5--5--7--7--7--------------------
A--------------------------|--------------------0--0--0--2--2-----
E--------------------------|--------------------------------------



G------------------------------------------------|-----|----------
D------------------------------------------------|-----|----------
A---2--3--3--5--3--2--0--5--3--2--0--3--2--0-----|-----|----------
E---------------------------------------------3--|-----|--3--3----



G---------------------|-------------------------------------------
D---------------------|-------------------------------------------
A---------------------|--3-----2-----0-----------0--------2-------
E------2--2-----0-----|--------------------3----------------------



G------------------------------|--------------------------2--0----
D------------------------------|--------------5--4--2--0----------
A---0--------------------------|--5--4--2--0----------------------
E---------3-----2-----0-----2--|----------------------------------



G--------|----------------------9h11-----9h11--|--14--11----------
D---4--2/|--9--9-----12--12--------------------|----------15------
A--------|-------------------------------------|------------------
E--------|-------------------------------------|------------------


4:52
G-----------------------------------------------------|-----------
D---12------------------------------------------------|-----------
A----------15--14-----12--10-----8--7-----5--3-----2--|--0--------
E-----------------------------------------------------|-----------



G------------|-----------------------|-----------------------|----
D------------|-----------------------|-----------------------|----
A---0--3--3--|-----0--0-----0--3--3--|--3--0--0-----0--3--3--|----
E------------|-----------------------|-----------------------|----



G------------------------|------------|--------------------|------
D------------------------|------------|--------------------|------
A------0--0-----0--3--3--|--3/17--15--|--0--0-----0--3--3--|------
E------------------------|------------|--------------------|------


5:15 ish
G------------------------|-----------------------|----------------
D------------------------|-----------------------|----------------
A------0--0-----0--3--3--|--3--0--0-----0--3--3--|--5-------------
E------------------------|-----------------------|--------0-------



G-------------------------|-----------------|---------------------
D-------------------------|-----------------|---------------------
A-------------------------|--0-----0--3--3--|--------0--3--0------
E---1/---2-----3-----3/4--|-----------------|--2--3---------------



G------------------------|----------------------------------------
D---------5--4--2--------|-----------------------5--4--2----------
A------0-----------------|--------0--3--0-----0-------------------
E------------------------|--2--3----------------------------------



G-----------------|-----------------------------------------|-----
D---2--0--2h4-----|-----------------------5--4--2/14--------|-----
A-----------------|--------0--3--0-----0--------------------|-----
E-----------------|--2--3-----------------------------------|-----



G-----------------------------------------------------------|-----
D---------------------------5--4--2--------2--0--2h4--------|-----
A------------0--3--0-----0----------------------------------|-----
E---0--2--3-------------------------------------------------|-----



G-----------------------------------------------17--|-------------
D------------------------5--4--2--------2--0--2/----|-------------
A---------0--3--0-----0-----------------------------|--------0----
E---2--3--------------------------------------------|--2--3-------



G--------------------------------------------|--------------------
D---------------5--4--2--------2--0--2h4-----|--------------------
A---3--0-----0-------------------------------|--------0--3--0-----
E--------------------------------------------|--2--3--------------



G--------------------------------------|--7-----9-----10----------
D---------5--4--2--------2--0--2h4-----|--------------------------
A------0-------------------------------|--------------------------
E--------------------------------------|--------------------------


5:47
G---10--11-----11--12--|------------------------------------------
D----------------------|--14--12--------14-----12-----14--14------
A----------------------|------------------------------------------
E----------------------|------------------------------------------



G--------------------------------|--------------------------------
D---12--12----------12-----------|--14--14--12--12--14--14--12----
A-----------14--14---------------|--------------------------------
E--------------------------------|--------------------------------



G-------------------------|---------------------------------------
D---12----------12--------|--14--------12--------14---------------
A-------14--14------------|---------------------------------------
E-------------------------|---------------------------------------



G---|---------12--12--12--12--12--12--12--12--12--12--------------
D---|--14------------------------------------------------14-------
A---|-------------------------------------------------------------
E---|-------------------------------------------------------------



G-------12--12----------12--12-----------------------|------------
D---14----------14--14------------------12-----------|--14--------
A-------------------------------14--14---------------|------------
E----------------------------------------------------|------------



G---12--12--12--12--12--12--12--12--12--12-------------12--12-----
D----------------------------------------------14--14-------------
A-----------------------------------------------------------------
E-----------------------------------------------------------------



G-----------12--12-----------------------|------------------------
D---14--14------------------12-----------|--14-----------12-------
A-------------------14--14---------------|------------------------
E----------------------------------------|------------------------


6:21
G----------------------|------------------------------------------
D---------14-----------|------------------------------------------
A----------------------|------------------------------------------
E----------------------|--0-----0-----0--0-----0-----0-----0------



G-----------------------------------------------------------------
D-----------------------------------------------------------------
A-----------------------------------------------------------------
E---0-----0--0-----0--0-----0-----0--0--0-----0-----0--0-----0----



G---------------------------------------------|-------------------
D---------------------------------------------|-------------------
A---------------------------------------------|-------------------
E------0--0--0-----0-----0--0-----0--3--------|--3-----3--3-------



G-----------------------------------------------------------------
D-----------------------------------------------------------------
A-----------------------------------------------------------------
E---3-----3-----3--0-----0--0-----0--0--0--3-----3-----3--3-------


6:47
G------------------------------------------------|----------------
D------------------------------------------------|---------15-----
A---------------------------------7-----5--------|--15h17---------
E---3-----3-----3--0-----0-----------------------|----------------



G---------------------------17------------19-----17--16-----14----
D-------------17-----17h19---------17h19--------------------------
A------15h17------------------------------------------------------
E-----------------------------------------------------------------



G---12------------------------------------------------------------
D-------14p12h14-----12--10-----9---------------------------------
A----------------------------------12--10--------10--12--10-------
E-----------------------------------------------------------------


6:58
G------------|--------------------------------5-------------------
D------------|-----------------------------7--------7--5----------
A---7--7--7--|--5-----5--5-----5--5-----8-----------------8--8----
E------------|----------------------------------------------------



G---------------------------|-------------------------------------
D---------------------------|---------15------------17------------
A---5-----5-----5-----5-----|--15h17---------15h17----------------
E---------------------------|------------------------------15-----



G-----------------------------------------------------------------
D-----------------------------------------------------------------
A--------15------------17-------------15--17--17p16p15--13--------
E---h17---------15h17---------15--17------------------------------


7:13
G--------------------------------------|--------------------------
D--------------------------------------|-------3----------5-------
A---13-----13--13-----13--13-----13\---|--3h5--------3h5----------
E--------------------------------------|--------------------------



G-----------------------------------------------------------------
D-----------------------------------------------------------------
A---------3-----------5-----------3--5--5p4p3--1-----1-----1------
E---3--5--------3--5--------3--5----------------------------------



G------------------------------|----------------------------------
D------------------------------|--2--2-----2--2-----2--2-----2----
A---1-----1-----1-----1--1-----|----------------------------------
E------------------------------|----------------------------------



G-----------------------------------------------------------------
D---2--2--2-----1--1-----1--1-----1-----1-----1--1--1-----1-------
A-----------------------------------------------------------------
E-----------------------------------------------------------------


7:33
G---|-----------------5--4--2--------|-----------------------5----
D---|--------0--3--0-----------------|--------0--3--0-----0-------
A---|--2--3--------------------------|--2--3----------------------
E---|--------------------------------|----------------------------



G---4--2--0--2h4--|-----------------5--4--2--------|--------------
D-----------------|--------0--3--0-----------------|--------0-----
A-----------------|--2--3--------------------------|--2--3--------
E-----------------|--------------------------------|--------------



G---------------5--4--2--0--2h4-----|-----------------5--4--2-----
D---3--0-----0----------------------|--------0--3--0--------------
A-----------------------------------|--2--3-----------------------
E-----------------------------------|-----------------------------



G---------|-----------------------5--4--2--0--2h4-----|-----------
D---------|--------0--3--0-----0----------------------|-----------
A---------|--2--3-------------------------------------|--2--3-----
E---------|-------------------------------------------|-----------



G------------------5--4--2--0--2h4--|-----------------------5-----
D---0--3--0-----0-------------------|--------0--3--0--3--0--------
A-----------------------------------|--2--3-----------------------
E-----------------------------------|-----------------------------


7:52
G---4--2--0--2--0--2--------|-------------------------------------
D---------------------------|--0-----------0-----------0-----3----
A---------------------------|--------0-----------0----------------
E---------------------------|-------------------------------------


7:59 Now into battle
G------------|--------------------2--------||---------------------
D------------|--2-----3-----5--------------||---------------------
A------3-----|--------------------------2--||---------------------
E------------|-----------------------------||---------------------



Subject: y/yes/gates_of_delirium.btab

Gates of Delirium - WAR
Yes

Part 2 of 3
Transcribed by Mike Briggs


7:59 from before the war
G---------------------2-----------||------------------------------
D---2-----3-----5-----------------||--7--7-----5--5-----5--5------
A---------------------------2-----||------------------------------
E---------------------------------||------------------------------



G-----------------------------------------------------------------
D---5--5-------------7--7--7-------------7-----7-----7--7---------
A---------5h7--------------------5h7------------------------------
E--------------5----------------------5---------------------------



G--------------------------------------|--------------------------
D---5--5--5--5--5--5--5--5--5----------|--7--7--7-----5-----5-----
A------------------------------5h7-----|--------------------------
E-----------------------------------5--|--------------------------



G-----------------------------------------------------------------
D------5--5----------7--7--7----------7--7--7-----5-----5---------
A------------5h7--------------5h7---------------------------------
E-----------------5----------------5------------------------------



G--------------------------------------|--------------------------
D---5--5-----5-----5-----5--5----------|--7--7--7-----5-----5-----
A------------------------------5h7-----|--------------------------
E-----------------------------------5--|--------------------------



G-----------------------------------------------------------------
D------5--5----------7--7--7----------7--7--7-----5-----5---------
A------------5h7--------------5h7---------------------------------
E-----------------5----------------5------------------------------



G------------------------------|----------------------------------
D---5--5-----5-----5-----5--5--|----------------------------------
A------------------------------|--4--4-----2--2-----------4--4----
E------------------------------|----------------------------------



G------------------------------------------------------------|----
D------------------------------------------------------------|----
A------2--2-----4--4--4--4-----2--2-----2--2--2--2-----2--2--|----
E------------------------------------------------------------|----



G-----------------------------------------------------------------
D-----------------------------------------------------------------
A---4--4-----2--2-----4--4-----2--2-----4--4--4--4-----2--2-------
E-----------------------------------------------------------------



G------------------------|----------------------------------------
D------------------------|--4-------------------------------------
A---2--2--2--2-----2--2--|-----6--4--6--4-----6--4-----6--4--6----
E------------------------|-----------------6--------6-------------



G-----------------------------------------------------------------
D---4-----------------4--------4----------------------------------
A------6--4--6--4--------6--4-----6--4-----6-----4--------4--6----
E------------------4-----------------------------------6----------



G---------|-------------------------------------------------------
D---6--6--|--4-----------------------------------4----------------
A---------|-----6--4--6--4-----6--4-----6--4--6-----6--4--6--4----
E---------|-----------------6--------6----------------------------



G---------------------------------------------------9--|----------
D------4--------4----------------------------4h6/8-----|--7--7----
A---------6--4-----6--4-----6-----4-----4h6------------|----------
E---4--------------------------------------------------|----------



G-----------------------------------------------------------------
D------5--5-----5--5--5--5-------------7--7--7-------------7------
A---------------------------5h7--------------------5h7------------
E--------------------------------5----------------------5---------



G--------------------------------------------------------|--------
D------7-----7--7-----5--5--5--5--5--5--5--5--5----------|--7-----
A------------------------------------------------5h7-----|--------
E-----------------------------------------------------5--|--------



G-----------------------------------------------------------------
D---7--7-----5-----5-----5--5----------7--7--7----------7--7------
A------------------------------5h7--------------5h7---------------
E-----------------------------------5----------------5------------



G--------------------------------------------------------|--------
D---7-----5-----5-----5--5-----5-----5-----5--5----------|--7-----
A------------------------------------------------5h7-----|--------
E-----------------------------------------------------5--|--------



G-----------------------------------------------------------------
D---7--7-----5-----5-----5--5----------7--7--7----------7--7------
A------------------------------5h7--------------5h7---------------
E-----------------------------------5----------------5------------


9:01 ish
G------------------------------------------------|----------------
D---7-----5-----5-----5--5-----5-----5-----5--5--|--11--11--11----
A------------------------------------------------|----------------
E------------------------------------------------|----------------



G-----------------------------------------------------------------
D------9-----9-----9--9-----------11--11--11-----------11--11-----
A------------------------9h11-----------------9h11----------------
E------------------------------9--------------------9-------------



G----------------------------------------------------------|------
D---11-----9-----9-----9--9-----9-----9-----9--9-----------|------
A-------------------------------------------------9h11-----|------
E-------------------------------------------------------9--|------



G-----------------------------------------------------------------
D---11--11--11-----9-----9-----9--9--------------11--11-----------
A------------------------------------9h11----------------9h11-----
E------------------------------------------9----------------------



G------------------------------------------------------------|----
D------11--11--11-----9-----9-----9--9-----9-----9-----9--9--|----
A------------------------------------------------------------|----
E---9--------------------------------------------------------|----


9:13
G---11----------------------------------------------|--11---------
D-------13--11--13--11------13--11------13--11--13--|------13-----
A-----------------------13----------13--------------|-------------
E---------------------------------------------------|-------------



G-------------------11----------11--------------------------------
D---11--13--11----------13--11------13--11--13-----11-------------
A---------------13----------------------------------------13------
E-----------------------------------------------------------------



G-----------------|--11-------------------------------------------
D-----------------|------13--11--13--11------13--11------13-------
A---11--9---------|----------------------13----------13-----------
E-------------11--|-----------------------------------------------



G-----------|--11----------------------11----------11-------------
D---11--13--|------13--11--13--11----------13--11------13--11-----
A-----------|----------------------13-----------------------------
E-----------|-----------------------------------------------------


9:24
G--------------------------------------|--------------------------
D---13-----11-----13/16-----13-----11--|--------------------------
A--------------------------------------|--5--5-----3--3-----------
E--------------------------------------|--------------------------



G-----------------------------------------------------------------
D-----------------------------------------------------------------
A------5--5-----10--10-----9--9--9--9--9--9--9--9--9--9--9--------
E-----------------------------------------------------------------



G-----------------------------------------------------------------
D-----------------------------------------------------------------
A---5--5-----3--3--------5--5-----10--10-----9--9--9--9--9--9-----
E-----------------------------------------------------------------



G------------------|----------------------------------------------
D------------------|--14--14-----13--13-----12--12--11--11--12----
A---9--9--9--9--9--|----------------------------------------------
E------------------|----------------------------------------------



G-----------------------------------------------------------------
D---12--13--13--13--13--13--13--13--13--13--13--13--13------------
A-----------------------------------------------------------------
E-----------------------------------------------------------------


9:42
G-----------------------------------------|-----------------------
D---14--14-----13--13-----12--12--11--11--|--7--7-----5--5--------
A-----------------------------------------|-----------------------
E-----------------------------------------|-----------------------



G-----------------------------------------------------------------
D---5--5--5--5-------------7--7--7-------------7-----7-----7------
A---------------5h7--------------------5h7------------------------
E--------------------5----------------------5---------------------



G--------------------------------------------|--------------------
D---7-----5--5--5--5--5--5--5--5--5----------|--7--7--7-----5-----
A------------------------------------5h7-----|--------------------
E-----------------------------------------5--|--------------------



G-----------------------------------------------------------------
D------5-----5--5----------7--7--7----------7--7--7-----5---------
A------------------5h7--------------5h7---------------------------
E-----------------------5----------------5------------------------


9:54
G---------------------------------------|--14--14--14-----12------
D---5-----5--5-----5-----5-----5--5--5--|-------------------------
A---------------------------------------|-------------------------
E---------------------------------------|-------------------------



G------12-----12--12-------------14--14--14-------------14--14----
D---------------------12h14------------------12h14----------------
A----------------------------12---------------------12------------
E-----------------------------------------------------------------



G---14------14------14-----12--12--12--12--12--12-----12----------
D-----------------------------------------------------------------
A-------12------12------------------------------------------------
E-----------------------------------------------------------------


9:59
G---12-----12--12--12--|--11--------------------------------------
D----------------------|------13--11--13-----13--------13--13-----
A----------------------|------------------------------------------
E----------------------|------------------------------------------



G-----------|--11----------------------11----------11-------------
D---11------|------13--11--13--11----------13--11------13--11-----
A-------13--|----------------------13-----------------------------
E-----------|-----------------------------------------------------


10:05
G-------------------------------------|---------------------------
D---13-----11-------------------------|---------------------------
A-----------------13--11--9-----6--6--|--5--5-----3--3------------
E-------------------------------------|---------------------------



G-----------------------------------------------------------|-----
D-----------------------------------------------------------|-----
A------5--5-----10--10-----9--9--9--9--9--9--9--9--9--9--9--|-----
E-----------------------------------------------------------|-----



G-----------------------------------------------------------------
D-----------------------------------------------------------------
A------12--12-----10--10--------12--12-----10--10-----9--9--9-----
E-----------------------------------------------------------------



G---------------------------|-------------------------------------
D---------------------------|--14--14-----13--13-----12--12-------
A---9--9--9--9--9--9--9--9--|-------------------------------------
E---------------------------|-------------------------------------



G-----------------------------------------------------------------
D---11--11--12--12--13--13--13--13--13--13--13--13--13--13--13----
A-----------------------------------------------------------------
E-----------------------------------------------------------------



G-----------------------------------------------------------------
D---13--------14--14-----13--13-----12--12--11--11--12--12--------
A-----------------------------------------------------------------
E-----------------------------------------------------------------


10:24
G---||------------------------------------------------------------
D---||*--------10--8-----------------------10--10------------8----
A---||*---------------8-----8h10----------------------8--10-------
E---||---8---------------------------8----------------------------


7x
G-------8--10---||------------------------------------------------
D---10---------*||--------10--8-----------------------10--10------
A--------------*||---------------8-----8h10-----------------------
E---------------||--8---------------------------8-----------------


10:49
G--------------------8-----||-------------------------------------
D-------------8--10--------||*--11--11-----11--11--------13-------
A------8--10---------------||*------------------------------------
E--------------------------||-----------9----------9--------------


4x
G-----------------------||-----||---------------------------------
D-------13------13-----*||-----||*--------10--8-------------------
A----------------------*||-----||*---------------8-----8h10-------
E---11------11----------||-----||---8-----------------------------


3x
G-------------------------------------8--10---||------------------
D---------10--10---------------8--10---------*||--------10--8-----
A-----------------------8--10----------------*||------------------
E---8-----------------------------------------||--8---------------



G-------------------------------------------------8-----||--------
D------------------------10--10------------8--10--------||*-------
A---8-----8h10----------------------8--10---------------||*-------
E------------------8------------------------------------||--------


2x
G----------------------------------------------------||--||-------
D---11--11-----11--11--------13------13------13-----*||--||*------
A---------------------------------------------------*||--||*------
E-----------9----------9---------11------11----------||--||-------


2x 11:25
G---------------------------------------------------||--||--------
D---15--15------15--15---------17------17------17--*||--||*-------
A--------------------------------------------------*||--||*-------
E-----------13----------13---------15------15-------||--||--------



G-----------------------------------------------------------------
D----------14--12--------------------------14--14-----------------
A------------------12-----12h14-----------------------12--14------
E---12------------------------------12----------------------------


5x
G-----------12--14---||-------------------------------------------
D---12--14----------*||---------14--12----------------------------
A-------------------*||-----------------12-----12h14--------------
E--------------------||--12------------------------------12-------


11:44
G------------------------------12-----|--||-----------------------
D---14--14-------------12--14---------|--||*--15--15------15------
A--------------12--14-----------------|--||*----------------------
E-------------------------------------|--||-----------13----------


2x
G--------------------------------------||-------------------------
D---15---------17------17------17-----*||--3--3-----3--3----------
A-------------------------------------*||-------------------------
E-------13---------15------15----------||--------1--------1-------



G------------------|-----------------------------------------|----
D---5-----5-----5--|-----7--7-----7--7--------8-----8-----8--|----
A------------------|-----------------------------------------|----
E------3-----3-----|-----------9--------9--------6-----6-----|----



G-----------------------------------------------------------------
D---10--10-----10--10--------13------13------13------13--13-------
A-----------------------------------------------------------------
E-----------8----------8---------11------11------11---------------



G------------------------------------------|----------------------
D-------13--13---------13------13------13--|--15--15------15------
A------------------------------------------|----------------------
E---11----------11---------11------11------|----------13----------



G----------------------------------|------------------------------
D---15---------17------17------17--|--19--19------19------19------
A----------------------------------|------------------------------
E-------13---------15------15------|----------17------17----------


12:08
G---------|-------------------------------------------------------
D------17\|-------------------------------------------------------
A---------|--0--4--5--6--0-----6-----4--5--6-----0--4--5--6--0----
E---------|-------------------------------------------------------



G------------------------------------------------5----------------
D---------------------------------------------4-----4-----5-------
A------0--4-----0--4--4--5--6--0-----0--6--6-----------6----------
E-----------------------------------------------------------------



G-----------------------------------------------------------------
D------5-----5--------5--------11---------------------------------
A---7-----7--------7--------7---------7--11-----7--9-----7--10----
E-----------------------------------------------------------------



G------------------------------------10--12--14--10---------------
D----------------------------10--12------------------10--12-------
A---7--10--7--10--7--10--12---------------------------------------
E-----------------------------------------------------------------



G--------------10-----------------10----------10------------------
D------10--12------12--10--12---------12--10------12--10----------
A-----------------------------------------------------------------
E-----------------------------------------------------------------



G-----------------------------10--12--14--------10----------------
D---12-----10---------10--12------------------------12--10--12----
A-----------------12----------------------------------------------
E-----------------------------------------------------------------



G-----------------------------------10----------------------10----
D---10------12--10------12--10--12------12--10--12--10------------
A-------12----------12----------------------------------12--------
E-----------------------------------------------------------------



G-----------10-----------------------------------------------|----
D---12--10------12--10-----12-----10-------------------------|----
A----------------------------------------12--10--8-----5-----|----
E------------------------------------------------------------|----


...carry on
G---------------------------------------|-------------------------
D------2-----2-----2-----2--------------|-------------------------
A---1-----1-----1-----1-----------------|-------------------------
E---------------------------------------|-------------------------


a bit of ad-lib don't go amiss here
G------------------------------------|----------------------------
D---2--2--2--2--2--2--2--2--2--2--2--|----------------------------
A------------------------------------|--1--1--1--1--1--1--1--1----
E------------------------------------|----------------------------



G------|----------------------------------------------------------
D------|--2--2--2--2--3--3--3--3--4--4--4--4--5--5--5--5--6--6----
A---1--|----------------------------------------------------------
E------|----------------------------------------------------------



G-----------------------------------------------------------------
D---6--6--7--7--7--7--8--8--8--8--9--9--9--9--10--10--10--10------
A-----------------------------------------------------------------
E-----------------------------------------------------------------


12:52
G---------------------------------------------------|-------------
D---11--11--11--11--12--12--12--12--13--13--13--13--|--14---------
A---------------------------------------------------|-------------
E---------------------------------------------------|-------------



G-------12--------16/19--18--16-----------------------------------
D---14---------------------------19--18--16--18-----18-----16-----
A-----------------------------------------------------------------
E-----------------------------------------------------------------



G-----------------------------------------------------------------
D---\14--16/18--16--16-----14-----14--12--11----------------------
A---------------------------------------------14--12--14----------
E-----------------------------------------------------------------



G-----------------------------------------------------------------
D-----------------------------------------------------------------
A---12h14--12--10--9-----7-----6-----5-----4-----2----------------
E------------------------------------------------------3h5--------


13:10
G------------------|----------------------------------------------
D------------------|----------------------------------------------
A------------------|----------------------------------------------
E---3-----3-----2--|--0-----0--0-----10h12--12-----10h12-----0----



G-----------------------------------------------------------------
D---------12h14--14--14--14--12h14--14--12h14---------------------
A-----------------------------------------------------------------
E---0--0---------------------------------------0h12--0--0--0------



G-----------------------------------------------------------------
D---12h14--14-----------------12h14--14--14--14--12h14--14--12----
A-----------------------------------------------------------------
E--------------0h12--0--0--0--------------------------------------



G-----------------------------------------------------------------
D---h14-----------------12h14--14-----------------12h14--14-------
A-----------------------------------------------------------------
E--------0h12--0--0--0-------------0h12--0--0--0------------------



G-----------------------------------------------------------------
D---12------------------------------------------------------------
A-------15--------------------------------------------------------
E-----------12--0--0--0--10h12--12--10h12--0--0--0--0--10h12------


13:29
G-------------------||--------------------------------------------
D-------------------||*--------------12h14--14--------------------
A-------------------||*-------------------------------------------
E---12-----10-----8\||---0--0--0--0-------------0h12--0--0--0-----



G-----------------------------------------------------------------
D---12h14--14--14--14--12h14--14--12h14-----------------12h14-----
A-----------------------------------------------------------------
E----------------------------------------0h12--0--0--0------------



G-----------------------------------------------------------------
D---14-----------------12h14--14--14--14--12h14--14--12h14--------
A-----------------------------------------------------------------
E-------0h12--0--0--0---------------------------------------0-----



G-----------------------------------------------------------------
D-----------------12h14--14--------------12h14--14-----12---------
A----------------------------------------------------------15-----
E---h12--0--0--0-------------0h12--0--0---------------------------


2x 14:05
G-----------------------------------------||----------------------
D----------------------------------------*||--------------12------
A---\------7--------7--5--------5-----3--*||----------------------
E-----------------------------------------||--0--0--0--0----------



G--------------------------------------16/---19--18--16-----------
D---h14--14-----------------12h14--14--------------------19-------
A-----------------------------------------------------------------
E------------0h12--0--0--0----------------------------------------



G-----------------------------------------------------------------
D---18--16--14-----------------12h14--14-----------------12h14----
A-----------------------------------------------------------------
E---------------0h12--0--0--0-------------0h12--0--0--0-----------



G-----------------------------------------------------------------
D---14--14--14--12h14--14--12h14-----------------12h14--14--------
A-----------------------------------------------------------------
E---------------------------------0h12--0--0--0-------------0-----



G-----------------------------------------------------------------
D--------------12h14--14-----12-----------------------------------
A--------------------------------15\------7--------7--5-----5-----
E---h12--0--0-----------------------------------------------------



G-----------------------------------------------------------------
D-----------------------------------------------------------------
A---3--------7-----7--5-----5--3-----7-----7--5-----5--3\---------
E-----------------------------------------------------------3-----



G-----------------------------------------------------------------
D-----------------------------------------------------------------
A------0--2--3-----3--3-----3--3----------------------------------
E---------------------------------0--0--1--1--2--3-----3-----3----



G-----------------------------------------------------------------
D-----------------------------------------------------------------
A---0--2--3-----3--3-----3--3--7--7--8--8--9-----9-----9-----9----
E-----------------------------------------------------------------



G-------------------------------------------10--9--7--------------
D------7-----9-----10-----10--10-----10---------------10--8--7----
A-----------------------------------------------------------------
E----------------------8----------8-------------------------------



G------7-----9-----10--------------------------7-----9-----10-----
D---8------------------------------------8------------------------
A-------------------------0---------------------------------------
E-----------------------------------------------------------------



G---------------------------7-----9-----10------------------------
D---------------------8------------------------------------8------
A------0------------------------------------0---------------------
E-----------------------------------------------------------------


15:10 and peace at last
G------7-----9-----10---------------------------------------------
D-----------------------------------------------------------------
A-------------------------0---------------------------------------
E-----------------------------------------------------------------



G---|-------------------------------------------------------------
D---|-------------------------------------------------------------
A---|-------------------------------------------------------------
E---|-------------------------------------------------------------




==================================================================
== Created with a demo version of BUCKET O' TAB ==
== tablature creation software for Windows ==
== http://www.his.com/~gse/bucket ==
==================================================================

Date: Mon, 16 Sep 2002 15:28:05 +0100
From: Mike Briggs
Subject: y/yes/gates_of_delirium.btab

Gates Of Delirium - Peace
Yes
Part 3 of 3
Transcribed by Mike Briggs


15:10 Long break, no bass! 16:30 chords
G---------------------------------------|--------5-----------2----
D---------------------------------------|--------5-----------2----
A---------------------------------------|--------3-----------0----
E---------------------------------------|--------0----------------


17:06
G------------------5--------|-------------------------------------
D------------------5--------|--10-----9-----7---------------------
A------------------3--------|------------------7--0--------10-----
E---------------------------|-------------------------------------



G-------12--------10h12p10----------------------------------------
D---12----------------------12------------------------------------
A-------------------------------10-----12-----7-----0-----10------
E-----------------------------------------------------------------



G-------12-----------10h12p10-------------------------------------
D---12-------------------------12---------------------------------
A----------------------------------10\5--------5/8--------8/15----
E-----------------------------------------------------------------


17:30
G------|---------------12-----14--------14-----12\---9-----9------
D------|--------14------------------------------------------------
A------|----------------------------------------------------------
E------|----------------------------------------------------------



G---10--9--------12--14--17-----16h17p16-----14h16p14-----12------
D-----------------------------------------------------------------
A-----------------------------------------------------------------
E-----------------------------------------------------------------


17:52
G-----------------------------------------------------------------
D------14-----------12-----14------------14-----15----------------
A---------------------------------15-------------------15---------
E-----------------------------------------------------------------


18:00
G------|----------------------------------------------------|-----
D------|--------12--------14-----14/15-----15/17-----17/19--|-----
A------|----------------------------------------------------|-----
E------|----------------------------------------------------|-----


18:14
G--------------------------|--------------------------------------
D------17p15---------------|--------------------------------------
A-------------17-----12\3--|--2-----0--------7/8-----10-----12----
E--------------------------|--------------------------------------



G----------------------------------14-----17-----17--16-----17----
D--------------------12-----15------------------------------------
A------14-----15--------------------------------------------------
E-----------------------------------------------------------------


18:55
G---14-----17----------------------------|------------------------
D--------------17-----15--14-------------|------------------------
A-----------------------------15-----12--|--10\---5---------------
E----------------------------------------|--------------3/---5----



G-------------------------------------------------------10--------
D------7-----------------------------------------10---------------
A---7--------10\5-----10--------5/---8/---12----------------------
E-----------------------------------------------------------------


19:17
G------14/---19--------19-----17-----17---------------------------
D----------------------------------------19\12-----12h14----------
A---------------------------------------------------------15------
E-----------------------------------------------------------------



G-----------------------------------------------------------------
D-----------------------------------------------------------------
A------15h17--10-----10\5\1-----1-----1/10-----10--12-----10------
E-----------------------------------------------------------------


19:50
G-----------------------------------------------------------------
D------------7h8--10-----7h8--10-----13-----15/17-----15\---10----
A------8----------------------------------------------------------
E-----------------------------------------------------------------


chords
G--------------|--2-----0--------2-----0--------7-----10----------
D---/13-----13\|--2-----0--------2-----0--------7-----10----------
A--------------|--0-----2--------0-----2--------5-----8-----------
E--------------|--------3--------------3--------------------------


20:25
G---9---------|---------------------------------------------------
D---10--------|---------------------------------------------------
A---10--------|-----------------------------0-----3-----3/5-------
E---8---------|--8\5-----5\1-----1\3-----3------------------------



G-----------------------------------------------------------------
D-----------------------------------------------------------------
A---5/8-----8/10--14--15--14\3-----3/5-----5/8-----8/11-----13----
E-----------------------------------------------------------------



G-----------------------------------------------------------------
D-------13------------------------------13/18-----18\-------------
A---15------10h11-----11--10-----10-------------------------------
E-----------------------------------------------------------------


ad lib 10 & 8
G-------------------------------------------|---------------------
D------10--10--10-----10-----8--------------|---------------------
A-------------------------------------------|---------------------
E-------------------------------------------|---------------------




==================================================================
== Created with a demo version of BUCKET O' TAB ==
== tablature creation software for Windows ==
== http://www.his.com/~gse/bucket ==
==================================================================

Copyrights
Author: ?
Composer: ?
Publisher: ?
More details
Language: English

Reactions

CommonCrawl [Bot]

Follow Muzikum