Yes
Saving My Heart (Guitar chord)

Date: Sat, 2 May 1998 13:56:55 +0300 (EEST)
From: Vesa Siivola
Subject: y/yes/saving_my_heart.crd


Saving My Heart
Yes

Intro:
C G9 dm7 F
C G9 dm7 F

Verse:
am
In the street where we ...
am
There's a stone cold ...
dm
That he leaves when the ...
am
And you left with an ...

Chorus:
C G9
Saving my ....
dm7 F
You do what ...
C G9
There's a place ...
dm7 F
This time I'm ...
C E
'Till the blood ...
am D/F#
I'll be there ...
C G9 dm7 F
There's a place ....

(
Chorus

G
You tell me ...
C
but it's not ...
G
something ...
C
It'll pass ...
G
I wanna hold ...
C
to connect my ...
G
I wanna take ...
Eb F G
take it out like ...

Chorus from D

solo (chorus chords from E)

Chorus from D

--------------------------------------------------------
The intro (chorus) bass line:

C G9 dm7 F
D----|-----|-0----|---------------|
A-3--|-----|------|------0--------|
E----|-3---|-----0|-1--3----3--1--|

verse bass:

am am dm
D------------|----------|-------3-7|--------
A--------3-7-|----------|-x--5-5---|-x-5-3-5
E-x--5-5-----|-x--5-3-5-|----------|--------

---------------------------------------------------------

Intro guitar:
(not completely correct)
C G9 dm7 F
E----------21--|--------21-|-23(\21)------|--------------
H---20(/22)----|-21(/23)---|-------23(\21)|--------------
G--------------|-----------|--------------| 22(\10)--20
D--------------|-----------|--------------|------------20

Solo? Somebody else's turn... I give up.

Vesa

Copyrights
Author: ?
Composer: ?
Publisher: ?
More details
Language: English

Reactions

CommonCrawl [Bot]

Follow Muzikum