Green Day
86 Ver 3 (Bass tab)

Green Day
86
Insomniac(1995)
Tabbed by: Kraig Wood
Tuning: 1/2 Step Down

h = hammer on
p = pull off

*I worked out rhythms for you the best I could but you'll have to listen to the song to get them totally down. Also, Mike does some varations with the 2 parts of the chorus riff throughout the song, so listen to it to figure those out exactly. When you get this down, you can make up your own fills to the end of the choruses and be creative with it


INTRO:(1x)
Gb:--------------------------------------------------------------------------
Db:----------------------------------569--------------------7h9--------------
Ab:-77-7777---------------44556677-77--------------------------7h9-----------
Eb:--------44-4444-55-5555--------------44-4444-55-5555-5555-----------------


VERSE:(2x)
Gb:------------------------------------------------------------------------------------
Db:------------------------------------------------------------------------------------
Ab:-77777777-77777777------------------------------------7-77777-7-77-7777-7-----------
Eb:------------------7-77777-7-77-7777-5-55555-5-55-5555-------------------------------


PRE-CHORUS:(1x)
Gb:--------------------------------------------------------------------------------------
Db:-------------------------------------------------------------------2p1-222------------
Ab:--------------------------------------------------------------------------------------
Eb:-7-77777-7-77-7777-5-55555-4-44-4444-55-7-77777-7-77-7777-5-55555-5-------------------


CHORUS:(2x)
Gb:--------------------------------------------------------------------------
Db:----------------------------------569--------------------7h9--------------
Ab:-77-7777---------------44556677-77--------------------------7h9-----------
Eb:--------44-4444-55-5555--------------44-4444-55-5555-5555-----------------


VERSE:(2x)
Gb:------------------------------------------------------------------------------------
Db:------------------------------------------------------------------------------------
Ab:-77777777-77777777-----------------------------------7-77777-7-77-7777-7------------
Eb:------------------7-77777-7-77-7777-5-55555-5-55-5555-------------------------------


PRE-CHORUS:(1x)
Gb:-----------------------------------------------------------------------------------
Db:-------------------------------------------------------------------2p1-222---------
Ab:-----------------------------------------------------------------------------------
Eb:-7-77777-7-77-7777-5-55555-4-44-4444-55-7-77777-7-77-7777-5-55555-5----------------


CHORUS:(4x)
Gb:--------------------------------------------------------------------------
Db:----------------------------------569--------------------7h9--------------
Ab:-77-7777---------------44556677-77--------------------------7h9-----------
Eb:--------44-4444-55-5555--------------44-4444-55-5555-5555-----------------


BRIDGE:(1x)
Gb:--------------------------------------------------------
Db:------------------------------------55667788------------
Ab:----------7-5-7-5-------------556677--------------------
Eb:-77-777-5----7---7-5-77-777-55--------------------------


CHORUS:(2x)
Gb:--------------------------------------------------------------------------
Db:----------------------------------569--------------------7h9--------------
Ab:-77-7777---------------44556677-77--------------------------7h9-----------
Eb:--------44-4444-55-5555--------------44-4444-55-5555-5555-----------------


OUTRO:(1x)
Gb:-------------
Db:-------------
Ab:------5h7-----
Eb:-7-7-7---5----

  • kw2388

    Submitted by

    kw2388 at Fri 01 Jul, 2005 12:40 am

  • <
Copyrights
Author: ?
Composer: ?
Publisher: ?
More details
Language: English

Reactions

CommonCrawl [Bot]

Follow Muzikum