Green Day

Green Day
W (Guitar tab)

Intro:
e-----------------------------------------------------------------------------
B-----------------------------------------------------------------------------
G------------7-7-7-7--9-9-9--5~-5-5--------------------------------------------
D---5-5-5-5--7-7-7-7--9-9-9--5~-5-5--------------------------------------------
A---5-5-5-5--5-5-5-5--7-7-7--3~-3-3--------------------------------------------
E---3-3-3-3-------------------------------------------------------------------
. . . . . .

Verse:
e-----------------------------------------------------------------------------
B-----------------------------------------------------------------------------
G------------7-7-7-7--9-9-9--5~-5-5--------------------------------------------
D---5-5-5-5--7-7-7-7--9-9-9--5~-5-5--------------------------------------------
A---5-5-5-5--5-5-5-5--7-7-7--3~-3-3--------------------------------------------
E---3-3-3-3-------------------------------------------------------------------
. . . . . .

Chorus:
e-------------------------------------------------------------------------
B-------------------------------------------------------------------------
G--------------------5-5-5-5-5-5-5-5-------------------5-5-5-5-5----------
D---7-7-7-7-7-7-7-7--5-5-5-5-5-5-5-5--7-7-7-7-7-7-7-7--5-5-5-5-5----------
A---7-7-7-7-7-7-7-7--3-3-3-3-3-3-3-3--7-7-7-7-7-7-7-7--3-3-3-3-3----------
E---5-5-5-5-5-5-5-5-------------------5-5-5-5-5-5-5-5---------------------

Solo:
e----3-----5-----3----5-----3-----5---------------------------------------
B------3-----3-----3----3-----3-----3----5~-------------------------------
G--------0-----0-----0----0-----0-----0-----------------------------------
D-------------------------------------------------------------------------
A-------------------------------------------------------------------------
E-------------------------------------------------------------------------

Outro:
e-----------------------------------------------------------------------------
B-----------------------------------------------------------------------------
G------------7-7-7-7--9-9-9--5~-5-5--------------------------------------------
D---5-5-5-5--7-7-7-7--9-9-9--5~-5-5--------------------------------------------
A---5-5-5-5--5-5-5-5--7-7-7--3~-3-3--------------------------------------------
E---3-3-3-3-------------------------------------------------------------------
. . . . . .

OptimusPrime

Submitted by OptimusPrime at Thu 14 Aug, 2003 4:58 pm

Author: ?
Composer: ?
Publisher: ?

Reactions

CommonCrawl [Bot]

Follow Muzikum