Green Day
D (Guitar tab)

Greenday (Artist)
DUI (Song)
? (Album)

Intro
e|--------------------------|
B|--------------------------|
G|--------------------------|
D|--------3-3---------3-3---|
A|--2-2---2-2---5-5---1-1---|
E|--0-2---------3-1---------|

Chorus
e|-------------------------|
B|-------------------------|
G|----------4---3----------|
D|--2-2-2---4---3----------|
A|--1-2-2---4---1----------|
E|--0-0-0------------------|

Final

e|--------------------------|
B|--------------------------|
G|--------------------------|
D|--------4-1-----1---3-3---|
A|--2-2---2-1---7-7---1-1---|
E|--0-2----1-1--3-1---------|

Copyrights
Author: ?
Composer: ?
Publisher: ?
More details
Language: English

Reactions

CommonCrawl [Bot]

Follow Muzikum