Green Day
86 Ver 4 (Guitar tab)

This is my first tab


Intro and chorus

---------------------------
---------------------------
---99999-------------------
---99999---66666---77777---
---77777---66666---77777---
-----------44444---55555---


main verse


-------------------------------
-------------------------------
--------------------2----------
---2---9---7---22---2-------x2-
---2---9---7---22---0----------
---0---7---5---00--------------


middle bit play after verse
------------------------
------------------------
------------------------
---99999999---77777777--
---99999999---77777777--
---77777777---55555555--


thats the whole song, but listen to it for the order

Copyrights
Author: ?
Composer: ?
Publisher: ?
More details
Language: English

Reactions

CommonCrawl [Bot]

Follow Muzikum