Cat Stevens
Father And Son Ver 3 (Guitar tab)

Cat StevensFather and Son
by Mickey - mikimp@pf.pl

It's melody of parts. It's only addition.

E|---------------------------|--------------------------|
B|---------------------------|--------------------------|
G|-4-5-7--4-5-7--4-5-7-7-9---|-----4-----4--5-4---------|
D|-------------------------5-|-5-7---5-7--------7-7-5-7-|
A|---------------------------|--------------------------|
E|---------------------------|--------------------------|

E|---------------------------|--------------------------|
B|---------------------------|--------------------------|
G|-4-5-7--4-5-7--4-5-7-7-9---|-----4-----4--5-4---------|
D|-------------------------5-|-5-7---5-7--------7-5---5-|
A|---------------------------|----------------------5---|
E|---------------------------|--------------------------|

E|--------------|
B|--------------|
G|-4-7--4-5-5-4-|
D|--------------|
A|--------------|
E|--------------|

--
Have fun!

Copyrights
Author: ?
Composer: ?
Publisher: ?
More details
Language: English

Reactions

CommonCrawl [Bot]

Follow Muzikum