System of a Down
U-fig (Guitar tab)

Artist: System Of A Down
Song: U-Fig
Album: Hypnotize
Tab by John Capi


Tuning: Db Ab Db Gb Bb eb; (C# G# C# F# A# D#)


Key

h = Hammer on
p = Pull of




Intro

eb ----------------------------------------------------------------------------------|\
Bb ------------------------------------------------------------6---6--------5---5----| \
Gb -7-7-7-9-9-9-10-10-10-10-9-5-7-7-7-9-9-9-10-10-10-10-9-5--3---3---3--3-3---3---3--| \ x2
Db -0-0-0-0-0-0-0--0--0--0--0-0-0-0-0-0-0-0-0--0--0--0--0-0--------------------------| /
Ab ----------------------------------------------------------------------------------| /
Db ----------------------------------------------------------------------------------|/


Verse 1 (0:17)

eb -----------------------------------------------------------------------------|\
Bb -----------------------------------------------------------------------------| \
Gb -----------------------------------------------------------------------------| \ x2
Db -----------------------------------------------------------------------------| /
Ab -----------------------------------------------------------------------------| /
Db -0h2-2-2-2h3p2-2--0h2-2-2-2h3p2-2--0h2-2-2-2h3p2-2--0h2-2-2-2h3p2-2----------|/


Chorus 1 (0:28)

eb ----------------------------------------------------------|\
Bb ----------------------------------------------------------| \
Gb ----------------------------------------------------------| \ x2
Db -7-7-7----5----7-7----------------------------------------| /
Ab -5-5-5--3---3--5-5---6p5-6p5-6p5-6p5-6p5-6p5-6p5-6p5------| /
Db ----------------------------------------------------------|/


Verse 2 (0:39)

eb -----------------------------------------------------------------------------|\
Bb -----------------------------------------------------------------------------| \
Gb -----------------------------------------------------------------------------| \ x2
Db -----------------------------------------------------------------------------| /
Ab -----------------------------------------------------------------------------| /
Db -0h2-2-2-2h3p2-2--0h2-2-2-2h3p2-2--0h2-2-2-2h3p2-2--0h2-2-2-2h3p2-2----------|/



Chorus 2 (0:50)

eb ----------------------------------------------------------|\
Bb ----------------------------------------------------------| \
Gb ----------------------------------------------------------| \ x4
Db -7-7-7----5----7-7----------------------------------------| /
Ab -5-5-5--3---3--5-5---6p5-6p5-6p5-6p5-6p5-6p5-6p5-6p5------| /
Db ----------------------------------------------------------|/


Interlude (1:12)

eb ---------------------------------------------------------------------------------------
Bb ------------------------------------------------------------6---6--------5---5---------
Gb -7-7-7-9-9-9-10-10-10-10-9-5-7-7-7-9-9-9-10-10-10-10-9-5--3---3---3--3-3---3---3-------
Db -0-0-0-0-0-0-0--0--0--0--0-0-0-0-0-0-0-0-0--0--0--0--0-0-------------------------------
Ab ---------------------------------------------------------------------------------------
Db ---------------------------------------------------------------------------------------


eb ----------------------------------------------------------------------------------
Bb ---------------------------------6---6--------5---5------6---6--------5---5-------
Gb -7-7-7-9-9-9-10-10-10-10-9-5---3---3---3--3-3---3---3--3---3---3--3-3---3---3-----
Db -0-0-0-0-0-0-0--0--0--0--0-0------------------------------------------------------
Ab ----------------------------------------------------------------------------------
Db ----------------------------------------------------------------------------------


eb -------------------------------|
Bb -------------------------------|
Gb -------------------------------|
Db -7-7-7-7-7-7-7-7-7-7-7-7-7-7---|
Ab -5-5-5-5-5-5-5-5-5-5-5-5-5-5---|
Db -------------------------------|


Now there are the various solo with the verse part. After play this...



eb -----------------------------------------------------------------------------|
Bb -----------------------------------------------------------------------------|
Gb -----------------------------------------------------------------------------|
Db -0h2-2-2-2h3p2-2--0h2-2-2-2h3p2-2--0h2-2-2-2h3p2-2--0h2-2-2-2h3p2-2----------|
Ab -0h2-2-2-2h3p2-2--0h2-2-2-2h3p2-2--0h2-2-2-2h3p2-2--0h2-2-2-2h3p2-2----------|
Db -0h2-2-2-2h3p2-2--0h2-2-2-2h3p2-2--0h2-2-2-2h3p2-2--0h2-2-2-2h3p2-2----------|


eb ----------------------------------------------------------|\
Bb ----------------------------------------------------------| \
Gb ----------------------------------------------------------| \ x4
Db -7-7-7----5----7-7----------------------------------------| /
Ab -5-5-5--3---3--5-5---6p5-6p5-6p5-6p5-6p5-6p5-6p5-6p5------| /
Db ----------------------------------------------------------|/


eb -----------------------------------------------------------------------------|
Bb -----------------------------------------------------------------------------|
Gb -----------------------------------------------------------------------------|
Db -----------------------------------------------------------------------------|
Ab -6p5-6p5-6p5-6p5-6p5-6p5-6p5-6p5-6p5-6p5-6p5-6p5-6p5-6p5-6p5-6p5-6p5-6p5-----|
Db -----------------------------------------------------------------------------|


Outro

eb ---------------------------------------------------------------------------------------
Bb ------------------------------------------------------------6---6--------5---5---------
Gb -7-7-7-9-9-9-10-10-10-10-9-5-7-7-7-9-9-9-10-10-10-10-9-5--3---3---3--3-3---3---3-------
Db -0-0-0-0-0-0-0--0--0--0--0-0-0-0-0-0-0-0-0--0--0--0--0-0-------------------------------
Ab ---------------------------------------------------------------------------------------
Db ---------------------------------------------------------------------------------------



eb -------------------------------------------------------------------------------------5-----|
Bb ---6---6--------5---5---------5----5---------5-----5---------5-----5--------2----5---6-----|
Gb -3---3---3--3-3---3---3-----2---------2----2----------2----2---------2----2----------7-----|
Db --------------------------2------2-------2------2--------2------2-------2-----2------7-----|
Ab -------------------------------------------------------------------------------------------|
Db -------------------------------------------------------------------------------------------|

  • JohnCapi

    Submitted by

    JohnCapi at Sat 26 Nov, 2005 3:04 pm

  • <
Copyrights
Author: ?
Composer: ?
Publisher: ?

Reactions

CommonCrawl [Bot]

Follow Muzikum