System of a Down

System of a Down
X (Guitar tab)

#---------------------------------PLEASE NOTE----------------------------------#



#------------Created with Taborama Tab Creator-----www.taborama.com------------#


Title: X
Artist: System of a Down
Album: Toxicity

Instrument: 6 String Guitar

Tabbed by: The Demon (Stevevill7979@aol.com)

Tuning: Select a Tuning... ( C G C F A D)

b=Bend


D|-------------------------------------------||
A|-------------------------------------------||
F|*-----------------------------------------*||
C|*-10p0-12p0-13p0-12p0-10p0-12p0-13p0-12p0-*||
G|-------------------------------------------||
C|-------------------------------------------||
P.M.-------------------------------------|
D|------------------------------------------------------------------||
A|------------------------------------------------------------------||
F|------------------------------------------------------------------||
C|-10p0-12p0--13-12-10-12-13-12-10-12-13-12-10-12-13-12-10-12-13-12-||
G|------------------------------------------------------------------||
C|------------------------------------------------------------------||
P.M.-----|
D|--------------||
A|--------------||
F|--------------||
C|-10-12-13-12--||
G|--------------||
C|--------------||

Riff I End Riff I X3
D|--------------------------------------------------------||
A|--------------------------------------------------------||
F|---------------9b--9b--9b-------------------------------||
C|--------------10b-10b-10b-------------------------------||
G|-0--0--0--0-0---------------0--0--0--0--0--0---10h13-13-||
C|-0--0--0--0-0---------------0--0--0--0--0--0---10h13-13-||

D|-----------------------------------------------------||
A|-----------------------------------------------------||
F|---------------9b--9b--9b----------------------------||
C|--------------10b-10b-10b----------------------------||
G|-0--0--0--0-0-------------0--0--0--0--0--0-10-13-13--||
C|-0--0--0--0-0-------------0--0--0--0--0--0-10-13-13--||
P.M.-|
Riff II End Riff II X8
D|-----------------------------||
A|-----------------------------||
F|-----------------------------||
C|-----------------------------||
G|-10-12-13-12-10-12-13-12-----||
C|-10-12-13-12-10-12-13-12-----||
P.M.--------------------|
Riff I X2
Riff II X12
Riff I X2 X3

D|-----------------------------10b----10b-----------||
A|--------------------------------------------------||
F|--------------------------------------------------||
C|--------------------------------------------------||
G|-10-12-13-12-0---0--0--0---0-----0-----0--0--0--0-||
C|-10-12-13-12-0---0--0--0---0-----0-----0--0--0--0-||
P.M.-----------------------| P.M. P.M.------|
Riff II X12

villjust

Submitted by villjust at Sun 16 Feb, 2003 12:14 pm

Author: ?
Composer: ?
Publisher: ?
Language: English

Reactions

CommonCrawl [Bot]

Follow Muzikum