Buzz Poets

Buzz Poets
Copenhagen Girl (Guitar tab)

Song: Copenhagen Girl
Artist: Buzz Poets
Album: Pretzel Sex
Transcribbed by: Josh Kudrav

Intro/Verse 1:
e|---------------------------------------------|
b|--------------0----------0-----------0-------|
g|----------2-----------4-----------7------9---|:
d|------2------------4-----------7---------9---|
a|---0------------2-----------5------------7---|:
e|---------------------------------------------|

Chorus:
e|---------------------------------------------|
b|---------------------------------------------|
g|---2--2--2--2----4--4--4--4----7--7--pm--9---|:
d|---2--2--2--2----4--4--4--4----7--7--pm--9---|
a|---0--0--0--0----2--2--2--2----5--5--pm--7---|:
e|---------------------------------------------|

Verse 2:
e|----------------------------------------------------------|
b|----------------------------------------------------------|
g|---2--2--2--0----4--4--4--0----7--7--7--0----9--9--9--0---|:
d|---2--2--2--0----4--4--4--0----7--7--7--0----9--9--9--0---|
a|---0--0--0--0----2--2--2--0----5--5--5--0----7--7--7--0---|:
e|----------------------------------------------------------|
pm throughout~~~~~~~~~~~~~~~~~~~~~~~~~~

Phil's solo:
e|-----------------------------------------------------------------------------------------------------------------------------
b|-----------------------------------------------2--3--2-----------------------------------------------------------------------
g|----------2--4b--2------2------------2--4-------------4--2--------------------2h4------4b--2------4b---------2--4b-----------
d|---2--4--------------4------4--2--4---------------------------4---------2--4---------4-----------4-------2--4----------------
a|---------------------------------------------------------------------2--4----------------------------------------------------
e|-----------------------------------------------------------------------------------------------------------------------------

e|--------------------------------------------------|
b|--------------------------------2--3--2-----------|
g|---2------2-------------2--4------------4--2------|
d|-------4------4--2--4-----------------------------|
a|--------------------------------------------------|
e|--------------------------------------------------|

b=bend
h=hammer on
pm=palm mute
--------------------------------------------------------------------------------------------------------------------------------
Well, that just about gets you the whole song. It's a fairly easy song to play and I think it's what made the
Buzz Poets who they are today. It was their first single anyways. Well anyways, have fun playing and if u have

OptimusPrime

Submitted by OptimusPrime at Thu 14 Aug, 2003 4:22 pm

Author: ?
Composer: ?
Publisher: ?
Language: English

Reactions

CommonCrawl [Bot]

Follow Muzikum