Zebrahead
Mindtrip (Bass tab)

Questions/Comments write at Bgred311@hotmail.com

Riff 1
1|--------|
2|--------|
3|--------|
4|--0--0--|
5|--------|

Riff 2
1|-----------------------------|
2|-----------------------------|
3|--------0--------------0-----|
4|--0--3-----3--0--0--3-----3--|
5|-----------------------------|

Riff 3
1|-----------------------------------------------------------|
2|-----------------------------2--------2--------2--------2--|
3|--3--3--3--------------0--0-----0--0-----0--0-----0--0-----|
4|-----------0--0--0--0--------------------------------------|
5|-----------------------------------------------------------|

Riff 4
1|-----------------|
2|-----------------|
3|--3--3--3--------|
4|-----------0--0--|
5|-----------------|
~*~Song Structure~*~
Riff 1 - 2 Times
Riff 2 - 8 Times
Riff 1 - 8 Times
Riff 2 - 8 Times
Riff 1 - 4 Times
Riff 3 - 7 Times
Riff 4 - 1 Time
Riff 1 - 16 Times
Riff 3 - 7 Times
Riff 4 - 1 Time

Copyrights
Author: ?
Composer: ?
Publisher: ?
More details
Language: English
Available on: Zebrahead (or Yellow) (1998)

Reactions

CommonCrawl [Bot]

Follow Muzikum