Zebrahead
Hate (Bass tab)

-------------------------------------------------------------------------------
Hate - Zebrahead
-------------------------------------------------------------------------------

By: Jason Nelson
Email: Scooby_182@hotmail.com

Riff 1
G|---------------------------------------------------------------------------|
D|---------------------------------------------------------------------------|
A|---------------------------------------------------------------------------|
E|--11-00-33-00-10-----------------------------------------------------------|
Riff 2
G|---------------------------------------------------------------------------|
D|---------------------------------------------------------------------------|
A|----5-4-3-0----------------------------------------------------------------|
E|--3------------------------------------------------------------------------|
Riff 3
G|---------------------------------------------------------------------------|
D|---------------------------------------------------------------------------|
A|--5------------------------------------------------------------------------|
E|----5----------------------------------------------------------------------|

G|---------------------------------------------------------------------------|
D|---------------------------------------------------------------------------|
A|---------------------------------------------------------------------------|
E|---------------------------------------------------------------------------|

Order:
Riff 1 x12
Riff 2 x16
Riff 3 x6
Riff 1 x8
Riff 2 x4
Riff 1 x4
===============================================================================

Copyrights
Author: ?
Composer: ?
Publisher: ?
More details
Language: English

Reactions

CommonCrawl [Bot]

Follow Muzikum