U2

U2
Like A Song Ver 3 (Guitar tab)

TUNING
_____________
|6|5|4|3|2|1|
-------------
|E|A|D|G|B|E|
-------------

intro:
D---------0-----------------------
A-----------------0--------------- (2x)
E-0-------------------------------
;.,.,.,.;.,.,.,.;.,.,.,.;.,.,.,.

main riff:
Em D Am
E-----------------------------------------------------------------
B-----0---------------3---------------0-----------1---0---1---0---
G---------0---------------2---------------2-----------------------
D-2-----------2---0-----------0---------------2-------------------
A---------------------------------0-------------------------------
E-----------------------------------------------------------------
; . , . , . , . ; . , . , . , . ; . , . , . , . ; . , . , . , .

Like a song I have to sing
I sing it for you
Like the words I have to bring
I bring it for you

(solo break)
E---------------------------------5---------5-----7---8---7---5---
B-5-----------5---7-----8-----7-----------------------------------
; . , . , . , . ; . , . , . , . ; . , . , . , . ; . , . , . , .

E---------------------------------5--------------10-12-14-10-12-14-------
B-5-----------5---7-----8-----7------------------------------------------
; . , . , . , . ; . , . , . , . ; . , . , . , . ; . , . , . , .


(main riff:)
And in leather, lace, and chains
We stake our claim
Revolution once again
No I won't...


verse part 2:
E-------7---7---7---9---7---7-------5---5---5---5---7---7---7---7-
B-------8---8---8--10---8---8-------5---5---5---5---7---7---7---7-

I won't wear it on my sleeve
I can see through this expression
And you know I don't believe


D Em
E-10-------12------
B-10-------12------
G-11-------12------
D-12-------14------
A------------------
E------------------


D
Too young to be told
Em
Exactly who are you

(main riff)
Tonight
Tomorrow's
Too late

And we love to wear a badge, a uniform
And we love to fly a flag
(main riff and verse part 2)
But I won't...let others live in hell
As we divide against each other
And we fight amongst ourselves
D Em
Too set in our ways to try to rearrange
D Em
Too right to be wrong, in this rebel song

Em (G Dm) (strike many times)
Let the bells ring out
Let the bells ring out

(main riff)
Is there nothing left
Is there, is there nothing
Is there nothing left
Is honesty what you want

(solo break)
E---------------------------------5---------5-----7---8---7---5---
B-5-----------5---7-----8-----7-----------------------------------
; . , . , . , . ; . , . , . , . ; . , . , . , . ; . , . , . , .

E-------------------------------------14--|:----14-:|-10-12-14-10-12-14-------
B-5-----------5---7-----8-----7--10-------|:-10----:|-------------------------
; . , . , . , . ; . , . , . , . ; ; . , . , . , .

(main riff)
A generation without name, ripped and torn
Nothing to lose, nothing to gain, nothing at all
And if you can't help yourself
Well take a look around you
When others need your time
(verse part 2)
You say it's time to go...it's your time
D
Angry words won't stop the fight
Em
Two wrongs won't make it right
D
A new heart is what I need
Em
Oh God, make it bleed

Em (G Dm) (strike many times)
Is there nothing left...


outro: (play around w/ this Dm chord) B------6-------
G------7-------

(when you see a chord symbol)
D Em G Dm
E-10-------12----------------------
B-10-------12------12------10------
G-11-------12------12------10------
D-12-------14------12------12------
A------------------10------12------
E----------------------------------


send comments, questions, to

Peter House
rockhouse67@hotmail.com


\\\ \\\\ \\ \\\ \\\\
\ \ \ \ \ \ \
\\\ \\ \\\\ \ \\
\ \ \ \ \ \
\ \\\\ \ \ \\\ \\\\
---------------------------------
/ //// / / /// ////
/ / / / / /
/// // //// / //
/ / / / / / /
/// //// // /// ////


see http://www.geocities.com/rockhouse7 for more tabs

rockhous

Submitted by rockhous at Tue 27 Jan, 2004 6:54 am

Author: ?
Composer: ?
Publisher: ?
Language: English

Reactions

CommonCrawl [Bot]

Follow Muzikum