U2

U2
11 Oclock Tick Tock Ver 2 (Bass tab)

U2 "11 O'Clock Tick Tock" -BASS TAB
-----------------------------------
steve palmer am560@freenet.carleton.ca

Tune down 1/2 step: Eb Ab Db Gb
(This is tuned to 'Under a Blood Red Sky')

Main riff:
Em C
|----------------------------------------------------|
|---------5---------5-----------2---------2----------|
|--7--7-7----7--7-7------3--3-3----3--3-3------------|
|----------------------------------------------------|

Post Chorus ('sad song...'):
Em Bm Em Bm Em Bm Em Bm
|--9--7-----9--9/7-----9--7-----9--9/7---------------|
|---------------------------------------2-0----------|
|-------------------------------------------2--------|
|----------------------------------------------------|

Outro:
G D Em Em
|--------------------------------------------------------------------|
|-5-5-5-5-5-5-5-5--0-0-0-0-0-0-0-0--2-2--2-0-2--2-0--2-2--2-0-2------|
|--------------------------------------------------------------------|
|--------------------------------------------------------------------|

OptimusPrime

Submitted by OptimusPrime at Thu 14 Aug, 2003 7:35 pm

Author: ?
Composer: ?
Publisher: ?
Language: English

Reactions

CommonCrawl [Bot]

Follow Muzikum