U2

U2
Elevation (Bass tab)

Elevaion - U2

Tabbed by Porridge
manosteel3k@hotmail.com

4/4 time sig, each . represents 1 beat

Intro - Start after elecric guitar bit

G---------------------|--------------------|x3
D---------------------|--------------------|
A--7-----------4--5---|--7-----------4--5--|
E------7-5-5-5--------|------7-5-5-5-------|
. . . . . . . .

G---------------------|--------------------|
D---------------------|--------------------|
A--7-----------4--5---|--------------------|
E------7-5-5-5--------|----7-7-7-7-7-5-5---|
. . . . . . . .

Riff 1

High, higher than the sun...

G---------------------|--------------------|x4
D---------------------|--------------------|
A--7-----------4--5---|--7-----------4--5--|
E------7-5-5-5--------|------7-5-5-5-------|
. . . . . . . .


Riff 2

Soul, i've got my self control...

G----------------------|--------------------|
D----------------------|--------------------|
A----------------------|--7-7-7-7-----------|
E--7-------5-5-5-------|--------------------|
. . . . . . . .

G----------------------|------------------|x2
D----------------------|------------------|
A----------------------|--------7-5-------|
E--7-------5-5-5-------|--0-0-0-----7-5---|
. . . . . . . .

1st Chorus

Play G---------------------|x3 Then G-----------------|
D---------------------| D-----------------|
A--7-----------4--5---| A-----------------|
E------7-5-5-5--------| E--7-7-7-7-7-5-5--|
. . . . . . . .

Play - Riff 1
Riff 2

2nd Chorus

Play G---------------------|x6 Then G-----------------|
D---------------------| D-----------------|
A--7-----------4--5---| A-----------------|
E------7-5-5-5--------| E--7-7-7-7-7-5-5--|
. . . . . . . .

Interlude - No bass

Play - Riff 2

Solo

G-------------------|---------------|x2
D-------------------|---------------|
A--7-7-7-7-6-6-6-6--|--5-5-5-5-5----|
E-------------------|---------------|
. . . . . . . .

G-------------------|------------------|------------------| Let last note ring for 1 bar
D-------------------|------------------|------------------|
A--7-7-7-7-6-6-6-6--|--5-5-5-5-4-4-4-4-|--3---2-----------|
E-------------------|------------------|----------3---5---|
. . . . . . . . . . . .

Play - G---------------------|x7 Then to finish G-------------------| Let last note ring out
D---------------------| D-------------------|
A--7-----------4--5---| A----------------7--|
E------7-5-5-5--------| E--7-7-7-7-7-5-5----|
. . . . . . . .

And that should be it, any comments, corrections or extra fills etc email me.

Porridge

Submitted by Porridge at Thu 17 Jul, 2003 12:54 am

Author: ?
Composer: ?
Publisher: ?
Language: English

Reactions

CommonCrawl [Bot]

Follow Muzikum