U2

U2
I Will Follow Ver. 3 (Guitar tab)

I Will Follow (Live UABRS)
Tabbed by John Couillard
Tuned down 1/2 step

INTRO:distortion

E-0-0-0-0-0-0-0--0-0-0-0-0-0-0 repeat 1212-1010
B-12121212121212-10101010101010 couple 1010-1010
G-9-9-9-9-9-9-9--9-9-9-9-9-9-9 of times 9-9--9-9-
D----------------------------- then ---------
A----------------------------- add>>>>> ---------
E----------------------------- ---------

VERSE:
PM............
E-----------------0-----5----3- repeats
B-5-5-5-5-5-5-5--3-3---5-5--3-3 listen
G-4-4-4-4-4-4-4-2---2/4----2---
D------------------------------
A------------------------------
E------------------------------

"walk away .walk away"
E-0-0-0-5-0-0\0-0-0-3-0-0 listen
B-5-5-5-5-5-5\3-3-3-3-3-3 for repeats
G-4-4-4-4-4-4\2-2-2-2-2-2
D------------------------
A------------------------
E------------------------

HaRMONICS PART
E------7--5--7-- listen for repeats
B------7--5--7--
G-12---7--5--7--
D-12------------
A-12------------
E---------------

when coming back to intro
riff..palm mute b-12
g-9
then continue with riff

just before ending riff

"I will....I will....I will"
PM...........
E---------------0--
B-5-5-5-5-5-5--2-2- listen for repeats
G-4-4-4-4-4-4-3----
D------------------
A------------------
E------------------

then into intro riff to end

supadad915@yahoo.com

DaEdge

Submitted by DaEdge at Sat 07 Jun, 2003 1:32 pm

Author: ?
Composer: ?
Publisher: ?
Language: English

Reactions

CommonCrawl [Bot]

Follow Muzikum