U2

U2
Dancing Barefoot (Guitar tab)

Dancing Barefoot
Tabbed by John Couillard
tuned down 1/2 a step

INTRO and VERSE:
Em, D, Em, A
-0--2--0---0- listen for strumming pattern
-0--3--0---2-
-0--2--0---2-
-2--0--2---2-
-2--0--2---0-
-------------

CHORUS: distortion (I prefer barred chords for this)
G A C5 D5 Em A C5 D5
-3----5--------------0----5----------- listen for timing
-3----5----5----7----0----5----5----7-
-4----6----5----7----0----6----5----7-
-5----7----5----7----2----7----5----7-
-5----7----3----5----2----7----3----5-
-3----5-------------------5-----------


then PART C: sustain, distortion

E----------------------------------------------------
B----------------------------------------------------
G--9----11-----12/19----9----11----12---11\12/11--7/9
D----------------------------------------------------

then back to VERSE

then back to CHORUS

then back to PART C

then VERSE (listen for fill G--7h9p7/9--)

then PART C(but changed a bit)
(listen closely for the slow hammering on this time)
B---------------------------------------------------
G--9---11----12/19----9---11---12---11-----9---11---

B---------------------------------------------------
G-9h11/12--11h12/19-19--9--11---12----11------------


then CHORUS

then SOLO:

E--------------------------------------------------------
B-------10-10(b)-10~~~----------10-10(b)-10~~~-----------
G--9-12--------------------9-12-----------------9---9----
D-----------------------12--------------------12--12--12-
A--------------------------------------------------------
E--------------------------------------------------------

(after every 12 put alittle vibrato on it here on string B)
E-----------------------------------------------------------
B--12~-12-12-12-12-12-12-12-12-12-12--12-10-----------------
G------------------------------------------12-11-9---------- 2x
D--------------------------------------------------12/14-14~
A-----------------------------------------------------------
E-----------------------------------------------------------

then

E-----------------------------------------------------------
B-----------------------------------------------------------
G---------9--------------------------9----------------------
D-12p11p9-----11-12-11-9-----12p11p9---11-12-11-9-----------
A------------------------12-----------------------12(b)-----
E----------------------------------------------------12-10--

E--------------------
B--------------------
G----9-9\7--7--------. play 4 times
D----9-9\7--7--2--7--.
A----7-7\5--5--2--7--
E--0-----------0--5--

then

G-9-9-9-9-12(b).4x then G-9-12-9-12-9-12(b)-9---9---9---. 2x
D--------------. D--------------------12--12---12.

then

E--------------------------
B-------------------------- repeat many times and thats it
G----9-9\7-7---------------
D----9-9\7-7--2------------
A----7-7\5-5--2--2---------
E--0----------0--3(b)~~----

supadad915@yahoo.com

DaEdge

Submitted by DaEdge at Sat 07 Jun, 2003 12:43 pm

Author: ?
Composer: ?
Publisher: ?
Language: English

Reactions

CommonCrawl [Bot]

Follow Muzikum